0
SECTION
2
HEADER
0
ENDSEC
0
SECTION
2
TABLES
0
TABLE
2
LTYPE
0
LTYPE
72
65
70
64
2
CONTINUOUS
3
______
73
0
40
0
0
ENDTAB
0
TABLE
2
LAYER
0
LAYER
2
DEFAULT_4_2_778
70
0
62
4
6
CONTINUOUS
0
LAYER
2
DEFAULT_255_2_778
70
0
62
255
6
CONTINUOUS
0
ENDTAB
0
ENDSEC
0
SECTION
2
ENTITIES
0
LINE
8
DEFAULT_4_2_778
10
42.788098
20
54.570311
11
47.7490353
21
54.570311
0
LINE
8
DEFAULT_255_2_778
10
45.2685667
20
54.570311
11
45.2685667
21
42.1679676
0
LINE
8
DEFAULT_4_2_778
10
45.2685667
20
57.0507797
11
45.2685667
21
54.570311
0
LINE
8
DEFAULT_255_2_778
10
45.2685667
20
7.441406
11
45.2685667
21
-4.9609374
0
ARC
8
0
10
45.604299
20
24.8087159
40
17.6990136
50
173.527383
51
180.013043
0
ARC
8
0
10
45.2889959
20
24.8439711
40
17.3817461
50
165.6970709
51
173.5256915
0
ARC
8
0
10
45.1606461
20
24.8752599
40
17.2496449
50
156.1360349
51
165.692455
0
ARC
8
0
10
45.2028943
20
24.8540704
40
17.296854
50
142.538985
51
156.1284636
0
ARC
8
0
10
45.2528225
20
24.8199211
40
17.3572559
50
118.3561104
51
142.5497487
0
ARC
8
0
10
45.1976586
20
24.9132334
40
17.2489402
50
107.8471426
51
118.342072
0
ARC
8
0
10
45.213359
20
24.8591206
40
17.3052608
50
99.5139866
51
107.8417144
0
ARC
8
0
10
45.252973
20
24.6162019
40
17.5513861
50
92.3721119
51
99.5104526
0
ARC
8
0
10
45.2679528
20
24.3354313
40
17.8325364
50
89.9980278
51
92.3828627
0
ARC
8
0
10
45.2725957
20
24.4689613
40
17.6990068
50
83.5273817
51
90.013043
0
ARC
8
0
10
45.3078508
20
24.7842627
40
17.3817409
50
75.6970684
51
83.5256904
0
ARC
8
0
10
45.3391363
20
24.9126007
40
17.249652
50
66.136036
51
75.6924515
0
ARC
8
0
10
45.3179421
20
24.8703466
40
17.2968684
50
52.538991
51
66.1284581
0
ARC
8
0
10
45.2837997
20
24.8204295
40
17.3572572
50
28.3561132
51
52.5497506
0
ARC
8
0
10
45.3771125
20
24.8755947
40
17.2489406
50
17.8471427
51
28.342072
0
ARC
8
0
10
45.3230005
20
24.8598917
40
17.3052614
50
9.5139955
51
17.8417232
0
ARC
8
0
10
45.0800816
20
24.8202804
40
17.5513861
50
2.3721119
51
9.5104527
0
ARC
8
0
10
44.7993111
20
24.8053006
40
17.8325364
50
359.9980278
51
2.3828627
0
ARC
8
0
10
44.9328411
20
24.8006578
40
17.6990068
50
353.5273817
51
0.013043
0
ARC
8
0
10
45.2481424
20
24.7654027
40
17.3817411
50
345.6970684
51
353.5256904
0
ARC
8
0
10
45.3764545
20
24.7341273
40
17.2496797
50
336.1360398
51
345.6924401
0
ARC
8
0
10
45.3342255
20
24.7553133
40
17.2968698
50
322.5389865
51
336.128453
0
ARC
8
0
10
45.2843083
20
24.7894551
40
17.3572585
50
298.3561118
51
322.5497482
0
ARC
8
0
10
45.339474
20
24.6961403
40
17.2489399
50
287.8471427
51
298.3420721
0
ARC
8
0
10
45.3237713
20
24.7502513
40
17.3052596
50
279.5139955
51
287.8417233
0
ARC
8
0
10
45.2841603
20
24.9931658
40
17.55138
50
272.3721123
51
279.5104544
0
ARC
8
0
10
45.2691805
20
25.2739291
40
17.8325232
50
269.9980278
51
272.382864
0
ARC
8
0
10
45.2645376
20
25.1404192
40
17.6990136
50
263.527383
51
270.013043
0
ARC
8
0
10
45.2292824
20
24.8251163
40
17.3817463
50
255.6970709
51
263.5256915
0
ARC
8
0
10
45.1980038
20
24.6967923
40
17.2496726
50
246.1360387
51
255.6924436
0
ARC
8
0
10
45.219185
20
24.7390154
40
17.2968554
50
232.5389806
51
246.1284585
0
ARC
8
0
10
45.2533337
20
24.7889438
40
17.3572572
50
208.356109
51
232.5497462
0
ARC
8
0
10
45.1600195
20
24.7337793
40
17.2489396
50
197.8471427
51
208.342072
0
ARC
8
0
10
45.2141312
20
24.7494794
40
17.305259
50
189.5139866
51
197.8417145
0
ARC
8
0
10
45.4570455
20
24.7890932
40
17.55138
50
182.3721123
51
189.5104544
0
ARC
8
0
10
45.737809
20
24.804073
40
17.8325232
50
179.9980278
51
182.382864
0
LINE
8
DEFAULT_255_2_778
10
27.9052859
20
24.8046868
11
27.9052859
21
24.8046868
0
ARC
8
0
10
45.4372272
20
24.8739107
40
17.2899085
50
71.7576215
51
80.1335976
0
ARC
8
0
10
45.3940019
20
24.6213346
40
17.5461556
50
80.1358616
51
87.2309592
0
ARC
8
0
10
45.3772707
20
24.3378119
40
17.8301557
50
87.2212717
51
90.0025898
0
ARC
8
0
10
45.372133
20
24.4650198
40
17.7029483
50
89.9859802
51
96.7913097
0
ARC
8
0
10
45.3341081
20
24.7897961
40
17.3759543
50
96.7934457
51
104.6583804
0
ARC
8
0
10
45.3025691
20
24.9190024
40
17.2429726
50
104.6656372
51
108.2478418
0
LINE
8
DEFAULT_255_2_778
10
39.903311
20
41.2948418
11
45.3764647
21
34.7265615
0
LINE
8
DEFAULT_255_2_778
10
45.3764647
20
34.7265615
11
50.8496165
21
41.2948418
0
LINE
8
DEFAULT_255_2_778
10
39.903311
20
41.2948418
11
39.903311
21
41.2948418
0
LINE
8
DEFAULT_255_2_778
10
27.9052727
20
28.5253898
11
16.7431636
21
28.5253898
0
LINE
8
DEFAULT_255_2_778
10
16.7431636
20
28.5253898
11
16.7431636
21
21.0839838
0
LINE
8
DEFAULT_255_2_778
10
16.7431636
20
21.0839838
11
27.9052727
21
21.0839838
0
LINE
8
DEFAULT_4_2_778
10
42.788098
20
-4.9609374
11
47.7490353
21
-4.9609374
0
LINE
8
DEFAULT_4_2_778
10
45.2685667
20
-7.441406
11
45.2685667
21
-4.9609374
0
ENDSEC
0
EOF