0
SECTION
2
HEADER
0
ENDSEC
0
SECTION
2
TABLES
0
TABLE
2
LTYPE
0
LTYPE
72
65
70
64
2
CONTINUOUS
3
______
73
0
40
0
0
ENDTAB
0
TABLE
2
LAYER
0
LAYER
2
DEFAULT_255_2_778
70
0
62
255
6
CONTINUOUS
0
LAYER
2
DEFAULT_4_2_778
70
0
62
4
6
CONTINUOUS
0
ENDTAB
0
ENDSEC
0
SECTION
2
ENTITIES
0
ARC
8
0
10
42.5036999
20
24.8087159
40
17.6990136
50
173.527383
51
180.013043
0
ARC
8
0
10
42.1883968
20
24.8439711
40
17.3817461
50
165.6970709
51
173.5256915
0
ARC
8
0
10
42.060047
20
24.8752599
40
17.2496449
50
156.1360349
51
165.692455
0
ARC
8
0
10
42.1022953
20
24.8540704
40
17.296854
50
142.538985
51
156.1284636
0
ARC
8
0
10
42.1522235
20
24.8199211
40
17.3572559
50
118.3561104
51
142.5497487
0
ARC
8
0
10
42.0970595
20
24.9132334
40
17.2489402
50
107.8471426
51
118.342072
0
ARC
8
0
10
42.11276
20
24.8591206
40
17.3052608
50
99.5139866
51
107.8417144
0
ARC
8
0
10
42.1523739
20
24.6162019
40
17.5513861
50
92.3721119
51
99.5104526
0
ARC
8
0
10
42.1673537
20
24.3354313
40
17.8325364
50
89.9980278
51
92.3828627
0
ARC
8
0
10
42.1719966
20
24.4689613
40
17.6990068
50
83.5273817
51
90.013043
0
ARC
8
0
10
42.2072517
20
24.7842627
40
17.3817409
50
75.6970684
51
83.5256904
0
ARC
8
0
10
42.2385372
20
24.9126007
40
17.249652
50
66.136036
51
75.6924515
0
ARC
8
0
10
42.217343
20
24.8703466
40
17.2968684
50
52.538991
51
66.1284581
0
ARC
8
0
10
42.1832007
20
24.8204295
40
17.3572572
50
28.3561132
51
52.5497506
0
ARC
8
0
10
42.2765134
20
24.8755947
40
17.2489406
50
17.8471427
51
28.342072
0
ARC
8
0
10
42.2224014
20
24.8598917
40
17.3052614
50
9.5139955
51
17.8417232
0
ARC
8
0
10
41.9794825
20
24.8202804
40
17.5513861
50
2.3721119
51
9.5104527
0
ARC
8
0
10
41.698712
20
24.8053006
40
17.8325364
50
359.9980278
51
2.3828627
0
ARC
8
0
10
41.832242
20
24.8006578
40
17.6990068
50
353.5273817
51
0.013043
0
ARC
8
0
10
42.1475433
20
24.7654027
40
17.3817411
50
345.6970684
51
353.5256904
0
ARC
8
0
10
42.2758554
20
24.7341273
40
17.2496797
50
336.1360398
51
345.6924401
0
ARC
8
0
10
42.2336264
20
24.7553133
40
17.2968698
50
322.5389865
51
336.128453
0
ARC
8
0
10
42.1837092
20
24.7894551
40
17.3572585
50
298.3561118
51
322.5497482
0
ARC
8
0
10
42.2388749
20
24.6961403
40
17.2489399
50
287.8471427
51
298.3420721
0
ARC
8
0
10
42.2231722
20
24.7502513
40
17.3052596
50
279.5139955
51
287.8417233
0
ARC
8
0
10
42.1835612
20
24.9931658
40
17.55138
50
272.3721123
51
279.5104544
0
ARC
8
0
10
42.1685814
20
25.2739291
40
17.8325232
50
269.9980278
51
272.382864
0
ARC
8
0
10
42.1639385
20
25.1404192
40
17.6990136
50
263.527383
51
270.013043
0
ARC
8
0
10
42.1286834
20
24.8251163
40
17.3817463
50
255.6970709
51
263.5256915
0
ARC
8
0
10
42.0974047
20
24.6967923
40
17.2496726
50
246.1360387
51
255.6924436
0
ARC
8
0
10
42.1185859
20
24.7390154
40
17.2968554
50
232.5389806
51
246.1284585
0
ARC
8
0
10
42.1527346
20
24.7889438
40
17.3572572
50
208.356109
51
232.5497462
0
ARC
8
0
10
42.0594204
20
24.7337793
40
17.2489396
50
197.8471427
51
208.342072
0
ARC
8
0
10
42.1135321
20
24.7494794
40
17.305259
50
189.5139866
51
197.8417145
0
ARC
8
0
10
42.3564464
20
24.7890932
40
17.55138
50
182.3721123
51
189.5104544
0
ARC
8
0
10
42.6372099
20
24.804073
40
17.8325232
50
179.9980278
51
182.382864
0
LINE
8
DEFAULT_255_2_778
10
24.8046868
20
24.8046868
11
24.8046868
21
24.8046868
0
LINE
8
DEFAULT_4_2_778
10
39.6874989
20
54.570311
11
44.6484363
21
54.570311
0
LINE
8
DEFAULT_255_2_778
10
42.1679676
20
54.570311
11
42.1679676
21
42.1679676
0
LINE
8
DEFAULT_4_2_778
10
42.1679676
20
57.0507797
11
42.1679676
21
54.570311
0
LINE
8
DEFAULT_255_2_778
10
42.1679676
20
7.441406
11
42.1679676
21
-4.9609374
0
LINE
8
DEFAULT_255_2_778
10
35.9667959
20
34.7265615
11
48.3691393
21
34.7265615
0
LINE
8
DEFAULT_255_2_778
10
48.3691393
20
34.7265615
11
42.1679676
21
42.1679676
0
LINE
8
DEFAULT_255_2_778
10
42.1679676
20
42.1679676
11
35.9667959
21
34.7265615
0
LINE
8
DEFAULT_255_2_778
10
35.9667959
20
14.8828121
11
48.3691393
21
14.8828121
0
LINE
8
DEFAULT_255_2_778
10
48.3691393
20
14.8828121
11
42.1679676
21
7.441406
0
LINE
8
DEFAULT_255_2_778
10
42.1679676
20
7.441406
11
35.9667959
21
14.8828121
0
LINE
8
DEFAULT_255_2_778
10
24.8046868
20
28.5253766
11
13.6425777
21
28.5253766
0
LINE
8
DEFAULT_255_2_778
10
13.6425777
20
28.5253766
11
13.6425777
21
21.0839706
0
LINE
8
DEFAULT_255_2_778
10
13.6425777
20
21.0839706
11
24.8046868
21
21.0839706
0
LINE
8
DEFAULT_255_2_778
10
24.8046868
20
7.4413928
11
63.2519514
21
45.8886574
0
LINE
8
DEFAULT_255_2_778
10
63.2519646
20
45.8886574
11
59.5312616
21
37.207017
0
LINE
8
DEFAULT_255_2_778
10
59.5312616
20
37.207017
11
54.5703242
21
42.1679543
0
LINE
8
DEFAULT_255_2_778
10
54.5703242
20
42.1679543
11
63.2519646
21
45.8886574
0
ARC
8
0
10
42.4803046
20
24.6362251
40
23.2306218
50
328.0780897
51
337.4455593
0
ARC
8
0
10
42.3459441
20
24.6924463
40
23.3762699
50
337.444614
51
345.1376587
0
ARC
8
0
10
42.1544999
20
24.7430279
40
23.5742835
50
345.1381827
51
351.6191341
0
ARC
8
0
10
41.8443719
20
24.7880137
40
23.8876566
50
351.6208049
51
357.6460729
0
ARC
8
0
10
41.5288807
20
24.8039411
40
24.2035359
50
357.6390753
51
0.001763
0
ARC
8
0
10
41.6692896
20
24.8089282
40
24.0631275
50
359.9898985
51
5.5497174
0
ARC
8
0
10
42.0783277
20
24.8482414
40
23.6522046
50
5.5507567
51
12.0156738
0
ARC
8
0
10
42.2946285
20
24.8931819
40
23.4312872
50
12.0182985
51
19.534941
0
ARC
8
0
10
42.3180688
20
24.8997412
40
23.4070029
50
19.5389953
51
28.8006546
0
ARC
8
0
10
42.2582969
20
24.8679493
40
23.4746973
50
28.7983686
51
31.8533266
0
LINE
8
DEFAULT_255_2_778
10
62.6318408
20
16.1230332
11
62.0117236
21
12.4023302
0
LINE
8
DEFAULT_255_2_778
10
62.0117236
20
12.4023302
11
65.1123095
21
14.8827989
0
LINE
8
DEFAULT_255_2_778
10
65.1123095
20
14.8827989
11
62.6318408
21
16.1230332
0
LINE
8
DEFAULT_4_2_778
10
39.6874989
20
-4.9609374
11
44.6484363
21
-4.9609374
0
LINE
8
DEFAULT_4_2_778
10
42.1679676
20
-7.441406
11
42.1679676
21
-4.9609374
0
LINE
8
DEFAULT_255_2_778
10
48.3691525
20
8.0615298
11
54.5703242
21
2.4804753
0
LINE
8
DEFAULT_255_2_778
10
54.5703242
20
2.4804753
11
54.5703242
21
-4.9609307
0
LINE
8
DEFAULT_4_2_778
10
52.0898423
20
-4.9609374
11
57.0507797
21
-4.9609374
0
LINE
8
DEFAULT_4_2_778
10
54.570311
20
-7.441406
11
54.570311
21
-4.9609374
0
ENDSEC
0
EOF