0
SECTION
2
HEADER
0
ENDSEC
0
SECTION
2
TABLES
0
TABLE
2
LTYPE
0
LTYPE
72
65
70
64
2
CONTINUOUS
3
______
73
0
40
0
0
LTYPE
72
65
70
64
2
DASH_DEFAULT_255_2_778_064_085
3
______
73
2
40
2
49
-0.19921568073322585
49
0.2645833259738156
0
ENDTAB
0
TABLE
2
LAYER
0
LAYER
2
DEFAULT_255_2_778
70
0
62
255
6
CONTINUOUS
0
LAYER
2
DEFAULT_4_2_778
70
0
62
4
6
CONTINUOUS
0
LAYER
2
DEFAULT_255_2_778_064_085
70
0
62
255
6
DASH_DEFAULT_255_2_778_064_085
0
ENDTAB
0
ENDSEC
0
SECTION
2
ENTITIES
0
LINE
8
DEFAULT_255_2_778
10
37.8271474
20
55.8105321
11
39.0673817
21
57.0507664
0
ARC
8
0
10
50.2254345
20
45.9593995
40
6.2719019
50
258.1624161
51
270.0371759
0
ARC
8
0
10
50.2049051
20
45.8514697
40
6.1620564
50
241.8357285
51
258.1433762
0
ARC
8
0
10
50.220512
20
45.8789356
40
6.1936368
50
199.8829518
51
241.8283736
0
ARC
8
0
10
50.2168617
20
45.8712054
40
6.1875779
50
186.2170381
51
199.8271349
0
ARC
8
0
10
50.351935
20
45.8873264
40
6.3236028
50
179.9878208
51
186.2297087
0
ARC
8
0
10
50.3002221
20
45.8927414
40
6.2718911
50
168.1623967
51
180.0371879
0
ARC
8
0
10
50.192302
20
45.9132711
40
6.1620551
50
151.83572
51
168.1433774
0
ARC
8
0
10
50.2197663
20
45.8976649
40
6.1936339
50
109.8829272
51
151.8283639
0
ARC
8
0
10
50.2120412
20
45.9013035
40
6.1875877
50
96.2170475
51
109.8271178
0
ARC
8
0
10
50.2281598
20
45.7662467
40
6.3235959
50
89.9878209
51
96.2297124
0
ARC
8
0
10
50.2335735
20
45.8179418
40
6.2719019
50
78.1624161
51
90.037176
0
ARC
8
0
10
50.2541005
20
45.9258633
40
6.162065
50
61.8357465
51
78.1433703
0
ARC
8
0
10
50.2384984
20
45.8984078
40
6.1936341
50
19.8829471
51
61.8283849
0
ARC
8
0
10
50.2421491
20
45.9061373
40
6.1875751
50
6.2170301
51
19.8271372
0
ARC
8
0
10
50.1070661
20
45.8900148
40
6.3236098
50
359.9878208
51
6.229705
0
ARC
8
0
10
50.1587898
20
45.8846
40
6.2718873
50
348.1623932
51
0.0371863
0
ARC
8
0
10
50.2667045
20
45.8640717
40
6.1620568
50
331.8357214
51
348.1433717
0
ARC
8
0
10
50.2392388
20
45.879679
40
6.1936373
50
289.882945
51
331.828362
0
ARC
8
0
10
50.2469668
20
45.876038
40
6.1875878
50
276.2170476
51
289.8271179
0
ARC
8
0
10
50.2308482
20
46.0110945
40
6.3235959
50
269.9878209
51
276.2297124
0
LINE
8
DEFAULT_255_2_778
10
50.229504
20
39.6874989
11
50.229504
21
39.6874989
0
LINE
8
DEFAULT_255_2_778
10
36.5869197
20
58.2910008
11
43.4082085
21
58.2910008
0
LINE
8
DEFAULT_255_2_778
10
43.4082085
20
58.2910008
11
48.3691459
21
52.0898291
0
LINE
8
DEFAULT_255_2_778
10
36.5869263
20
45.8886706
11
44.0283323
21
45.8886706
0
LINE
8
DEFAULT_255_2_778
10
36.5869197
20
33.486314
11
43.4082085
21
33.486314
0
LINE
8
DEFAULT_255_2_778
10
43.4082085
20
33.486314
11
48.3691459
21
39.6874857
0
ARC
8
0
10
40.2551162
20
33.4386947
40
1.2347871
50
237.0596196
51
270.1349237
0
ARC
8
0
10
40.2546062
20
33.4382824
40
1.2341637
50
186.4104816
51
237.0690789
0
ARC
8
0
10
40.2821404
20
33.4413831
40
1.261872
50
179.9873135
51
186.4108045
0
ARC
8
0
10
40.2550539
20
33.4445686
40
1.2347888
50
147.0596977
51
180.1348449
0
ARC
8
0
10
40.2546423
20
33.4450809
40
1.234165
50
96.4104748
51
147.0692695
0
ARC
8
0
10
40.2577428
20
33.4175838
40
1.2618363
50
89.9872315
51
96.4109738
0
ARC
8
0
10
40.2609286
20
33.4446595
40
1.2347639
50
57.0591853
51
90.1347838
0
ARC
8
0
10
40.2614209
20
33.4450402
40
1.2341767
50
6.4105474
51
57.0687536
0
ARC
8
0
10
40.2339502
20
33.4419435
40
1.2618213
50
359.987239
51
6.411009
0
ARC
8
0
10
40.2609973
20
33.4387567
40
1.2347775
50
327.0594938
51
0.1348353
0
ARC
8
0
10
40.2613987
20
33.4382493
40
1.2341648
50
276.410689
51
327.0691264
0
ARC
8
0
10
40.2583051
20
33.465705
40
1.2617942
50
269.9872319
51
276.4110843
0
LINE
8
DEFAULT_255_2_778
10
40.258024
20
32.2039111
11
40.258024
21
32.2039111
0
LINE
8
DEFAULT_255_2_778
10
25.4248172
20
60.7714827
11
25.4248172
21
55.8105453
0
LINE
8
DEFAULT_255_2_778
10
27.9052859
20
60.7714827
11
27.9052859
21
55.8105453
0
LINE
8
DEFAULT_255_2_778
10
25.4248172
20
48.3691393
11
25.4248172
21
43.4082019
0
LINE
8
DEFAULT_255_2_778
10
27.9052859
20
48.3691393
11
27.9052859
21
43.4082019
0
LINE
8
DEFAULT_255_2_778
10
25.4248172
20
35.9667959
11
25.4248172
21
31.0058585
0
LINE
8
DEFAULT_255_2_778
10
27.9052859
20
35.9667959
11
27.9052859
21
31.0058585
0
LINE
8
DEFAULT_255_2_778
10
27.9052727
20
45.8886706
11
31.6259757
21
45.8886706
0
LINE
8
DEFAULT_255_2_778
10
27.9052727
20
33.4863272
11
31.6259757
21
33.4863272
0
LINE
8
DEFAULT_255_2_778
10
27.9052727
20
58.291014
11
31.6259757
21
58.291014
0
LINE
8
DEFAULT_255_2_778
10
15.5029425
20
58.291014
11
25.4248172
21
58.291014
0
LINE
8
DEFAULT_255_2_778
10
15.5029425
20
45.8886706
11
25.4248172
21
45.8886706
0
LINE
8
DEFAULT_255_2_778
10
15.5029425
20
33.4863272
11
25.4248172
21
33.4863272
0
LINE
8
DEFAULT_255_2_778
10
3.1005991
20
58.291014
11
8.0615364
21
58.291014
0
LINE
8
DEFAULT_4_2_778
10
3.1005991
20
55.8105453
11
3.1005991
21
60.7714827
0
LINE
8
DEFAULT_4_2_778
10
0.6201304
20
58.291014
11
3.1005991
21
58.291014
0
ARC
8
0
10
40.2551163
20
45.8410343
40
1.2347832
50
237.0594998
51
270.1349197
0
ARC
8
0
10
40.2546108
20
45.840629
40
1.2341682
50
186.410437
51
237.0689637
0
ARC
8
0
10
40.2821478
20
45.8437305
40
1.2618793
50
179.9873137
51
186.4107863
0
ARC
8
0
10
40.255047
20
45.846916
40
1.2347819
50
147.0596047
51
180.1348442
0
ARC
8
0
10
40.2546415
20
45.8474232
40
1.2341659
50
96.410431
51
147.0691319
0
ARC
8
0
10
40.2577428
20
45.8199273
40
1.2618363
50
89.9872315
51
96.4109737
0
ARC
8
0
10
40.2609291
20
45.8470012
40
1.2347656
50
57.0592618
51
90.1348029
0
ARC
8
0
10
40.2614255
20
45.8473868
40
1.2341722
50
6.410592
51
57.0688687
0
ARC
8
0
10
40.2339629
20
45.8442911
40
1.2618086
50
359.987232
51
6.4110477
0
ARC
8
0
10
40.2609907
20
45.8411039
40
1.2347841
50
327.0595846
51
0.1348427
0
ARC
8
0
10
40.2613979
20
45.8405916
40
1.2341639
50
276.4107328
51
327.0692641
0
ARC
8
0
10
40.2583051
20
45.8680485
40
1.2617942
50
269.987232
51
276.4110843
0
LINE
8
DEFAULT_255_2_778
10
40.258024
20
44.6062545
11
40.258024
21
44.6062545
0
ARC
8
0
10
40.2551163
20
58.2434038
40
1.2347832
50
237.0595003
51
270.13492
0
ARC
8
0
10
40.2546102
20
58.2429983
40
1.2341677
50
186.4104644
51
237.0689802
0
ARC
8
0
10
40.2821478
20
58.2460993
40
1.2618793
50
179.9873205
51
186.4107842
0
ARC
8
0
10
40.2550509
20
58.2492848
40
1.2347859
50
147.0596618
51
180.1348554
0
ARC
8
0
10
40.2546413
20
58.2497939
40
1.2341653
50
96.4104248
51
147.0691569
0
ARC
8
0
10
40.2577428
20
58.2222974
40
1.2618363
50
89.9872315
51
96.4109737
0
ARC
8
0
10
40.2609287
20
58.2493691
40
1.2347678
50
57.0593053
51
90.134788
0
ARC
8
0
10
40.2614248
20
58.2497566
40
1.2341728
50
6.4105492
51
57.0688512
0
ARC
8
0
10
40.2339559
20
58.2466597
40
1.2618157
50
359.987232
51
6.4110293
0
ARC
8
0
10
40.260992
20
58.2434729
40
1.2347828
50
327.0595685
51
0.1348272
0
ARC
8
0
10
40.2613975
20
58.2429624
40
1.234165
50
276.4107462
51
327.0692181
0
ARC
8
0
10
40.2583051
20
58.2704181
40
1.2617942
50
269.987232
51
276.4110843
0
LINE
8
DEFAULT_255_2_778
10
40.258024
20
57.0086241
11
40.258024
21
57.0086241
0
LINE
8
DEFAULT_255_2_778
10
41.5478504
20
59.5312351
11
42.7880847
21
60.7714695
0
LINE
8
DEFAULT_255_2_778
10
37.8271474
20
43.4081887
11
39.0673817
21
44.648423
0
LINE
8
DEFAULT_255_2_778
10
41.5478504
20
47.1288917
11
42.7880847
21
48.3691261
0
LINE
8
DEFAULT_255_2_778
10
37.8271474
20
31.0058453
11
39.0673817
21
32.2460796
0
LINE
8
DEFAULT_255_2_778
10
41.5478504
20
34.7265483
11
42.7880847
21
35.9667826
0
LINE
8
DEFAULT_255_2_778
10
25.4248172
20
23.5644525
11
25.4248172
21
18.6035151
0
LINE
8
DEFAULT_255_2_778
10
27.9052859
20
23.5644525
11
27.9052859
21
18.6035151
0
LINE
8
DEFAULT_255_2_778
10
25.4248172
20
11.1621091
11
25.4248172
21
6.2011717
0
LINE
8
DEFAULT_255_2_778
10
27.9052859
20
11.1621091
11
27.9052859
21
6.2011717
0
LINE
8
DEFAULT_255_2_778
10
25.4248172
20
-1.2402343
11
25.4248172
21
-6.2011717
0
LINE
8
DEFAULT_255_2_778
10
27.9052859
20
-1.2402343
11
27.9052859
21
-6.2011717
0
LINE
8
DEFAULT_255_2_778
10
22.9443485
20
33.4863272
11
22.9443485
21
21.0839838
0
LINE
8
DEFAULT_255_2_778
10
22.9443485
20
21.0839838
11
25.4248172
21
21.0839838
0
LINE
8
DEFAULT_255_2_778
10
27.9052859
20
21.0839838
11
65.1123161
21
21.0839838
0
LINE
8
DEFAULT_255_2_778
10
65.1123161
20
21.0839838
11
65.1123161
21
58.291014
0
LINE
8
DEFAULT_255_2_778
10
20.4638798
20
45.8886706
11
20.4638798
21
8.6816404
0
LINE
8
DEFAULT_255_2_778
10
20.4638798
20
8.6816404
11
25.4248172
21
8.6816404
0
LINE
8
DEFAULT_255_2_778
10
27.9052859
20
8.6816404
11
67.5927848
21
8.6816404
0
LINE
8
DEFAULT_255_2_778
10
67.5927848
20
8.6816404
11
67.5927848
21
33.4863272
0
LINE
8
DEFAULT_255_2_778
10
17.9834112
20
58.291014
11
17.9834112
21
-3.720703
0
LINE
8
DEFAULT_255_2_778
10
17.9834112
20
-3.720703
11
25.4248172
21
-3.720703
0
LINE
8
DEFAULT_255_2_778
10
27.9052859
20
-3.720703
11
70.0732535
21
-3.720703
0
LINE
8
DEFAULT_255_2_778
10
70.0732535
20
-3.720703
11
70.0732535
21
45.8886706
0
LINE
8
DEFAULT_255_2_778
10
62.6318342
20
35.9667826
11
61.3915999
21
34.7265483
0
LINE
8
DEFAULT_255_2_778
10
72.5537155
20
33.486314
11
57.0507863
21
33.486314
0
LINE
8
DEFAULT_255_2_778
10
57.0507863
20
33.486314
11
52.0898489
21
39.6874857
0
LINE
8
DEFAULT_255_2_778
10
72.5537089
20
45.8886706
11
56.4306625
21
45.8886706
0
LINE
8
DEFAULT_255_2_778
10
72.5537155
20
58.2910008
11
57.0507863
21
58.2910008
0
LINE
8
DEFAULT_255_2_778
10
57.0507863
20
58.2910008
11
52.0898489
21
52.0898291
0
ARC
8
0
10
60.2026433
20
58.3398537
40
1.2347957
50
57.0597606
51
90.1348771
0
ARC
8
0
10
60.2031603
20
58.3402742
40
1.2341617
50
6.4105415
51
57.0692877
0
ARC
8
0
10
60.1756809
20
58.3371761
40
1.2618153
50
359.9872386
51
6.4110269
0
ARC
8
0
10
60.2027177
20
58.3339876
40
1.2347817
50
327.0595121
51
0.1349078
0
ARC
8
0
10
60.2031201
20
58.3334844
40
1.2341704
50
276.4103589
51
327.0689608
0
ARC
8
0
10
60.2000177
20
58.3609761
40
1.2618368
50
269.9872317
51
276.410974
0
ARC
8
0
10
60.1968309
20
58.3339003
40
1.2347642
50
237.059308
51
270.1348263
0
ARC
8
0
10
60.1963363
20
58.3335115
40
1.2341689
50
186.4103431
51
237.0687652
0
ARC
8
0
10
60.2238863
20
58.3366158
40
1.2618932
50
179.9873202
51
186.4107472
0
ARC
8
0
10
60.1967728
20
58.3398017
40
1.2347831
50
147.0596877
51
180.134875
0
ARC
8
0
10
60.1963597
20
58.340315
40
1.2341572
50
96.4106324
51
147.0692592
0
ARC
8
0
10
60.1994553
20
58.3128525
40
1.2617937
50
89.9872316
51
96.411084
0
LINE
8
DEFAULT_255_2_778
10
60.1997365
20
59.574646
11
60.1997365
21
59.574646
0
ARC
8
0
10
60.2026443
20
45.9375118
40
1.2347935
50
57.0597459
51
90.1349236
0
ARC
8
0
10
60.2031604
20
45.9379303
40
1.2341615
50
6.4105164
51
57.0692901
0
ARC
8
0
10
60.175681
20
45.9348316
40
1.2618152
50
359.9872317
51
6.411029
0
ARC
8
0
10
60.2027205
20
45.9316431
40
1.234779
50
327.0594767
51
0.1349006
0
ARC
8
0
10
60.2031202
20
45.9311423
40
1.234171
50
276.410347
51
327.0688978
0
ARC
8
0
10
60.2000177
20
45.9586335
40
1.2618368
50
269.9872317
51
276.410974
0
ARC
8
0
10
60.1968302
20
45.9315574
40
1.2347639
50
237.0593385
51
270.1348589
0
ARC
8
0
10
60.196334
20
45.9311673
40
1.2341667
50
186.4103654
51
237.0688228
0
ARC
8
0
10
60.223879
20
45.9342709
40
1.2618859
50
179.9873133
51
186.4107676
0
ARC
8
0
10
60.1967742
20
45.9374573
40
1.2347845
50
147.0597064
51
180.1348845
0
ARC
8
0
10
60.196359
20
45.9379717
40
1.2341562
50
96.4106041
51
147.0692694
0
ARC
8
0
10
60.1994553
20
45.9105083
40
1.2617937
50
89.9872316
51
96.411084
0
LINE
8
DEFAULT_255_2_778
10
60.1997365
20
47.1723018
11
60.1997365
21
47.1723018
0
ARC
8
0
10
60.202644
20
33.5351682
40
1.2347956
50
57.0597901
51
90.1349089
0
ARC
8
0
10
60.2031623
20
33.5355898
40
1.2341599
50
6.4105636
51
57.0693441
0
ARC
8
0
10
60.1756881
20
33.5324922
40
1.2618081
50
359.9872317
51
6.4110474
0
ARC
8
0
10
60.2027124
20
33.5293044
40
1.234787
50
327.0595857
51
0.134871
0
ARC
8
0
10
60.2031169
20
33.5287973
40
1.2341718
50
276.4105
51
327.0691303
0
ARC
8
0
10
60.2000177
20
33.5562881
40
1.2618368
50
269.9872318
51
276.4109741
0
ARC
8
0
10
60.1968311
20
33.5292045
40
1.2347564
50
237.0590685
51
270.1348182
0
ARC
8
0
10
60.1963437
20
33.5288292
40
1.2341766
50
186.4103767
51
237.068583
0
ARC
8
0
10
60.2238798
20
33.5319316
40
1.2618867
50
179.9873138
51
186.4107681
0
ARC
8
0
10
60.1967703
20
33.5351175
40
1.2347806
50
147.0596519
51
180.1348672
0
ARC
8
0
10
60.1963594
20
33.5356293
40
1.2341573
50
96.4106154
51
147.0692203
0
ARC
8
0
10
60.1994553
20
33.508167
40
1.2617937
50
89.9872316
51
96.411084
0
LINE
8
DEFAULT_255_2_778
10
60.1997365
20
34.7699604
11
60.1997365
21
34.7699604
0
LINE
8
DEFAULT_255_2_778
10
58.9111312
20
32.2460796
11
57.6708968
21
31.0058453
0
LINE
8
DEFAULT_255_2_778
10
62.6318342
20
48.3691261
11
61.3915999
21
47.1288917
0
LINE
8
DEFAULT_255_2_778
10
58.9111312
20
44.648423
11
57.6708968
21
43.4081887
0
LINE
8
DEFAULT_255_2_778
10
62.6318342
20
60.7714695
11
61.3915999
21
59.5312351
0
LINE
8
DEFAULT_255_2_778
10
58.9111312
20
57.0507664
11
57.6708968
21
55.8105321
0
LINE
8
DEFAULT_255_2_778
10
72.5537221
20
60.7714827
11
72.5537221
21
55.8105453
0
LINE
8
DEFAULT_255_2_778
10
75.0341908
20
60.7714827
11
75.0341908
21
55.8105453
0
LINE
8
DEFAULT_255_2_778
10
72.5537221
20
48.3691393
11
72.5537221
21
43.4082019
0
LINE
8
DEFAULT_255_2_778
10
75.0341908
20
48.3691393
11
75.0341908
21
43.4082019
0
LINE
8
DEFAULT_255_2_778
10
72.5537221
20
35.9667959
11
72.5537221
21
31.0058585
0
LINE
8
DEFAULT_255_2_778
10
75.0341908
20
35.9667959
11
75.0341908
21
31.0058585
0
LINE
8
DEFAULT_255_2_778
10
75.0341776
20
58.291014
11
78.7548806
21
58.291014
0
LINE
8
DEFAULT_255_2_778
10
75.0341776
20
45.8886706
11
78.7548806
21
45.8886706
0
LINE
8
DEFAULT_255_2_778
10
75.0341776
20
33.4863272
11
78.7548806
21
33.4863272
0
LINE
8
DEFAULT_255_2_778
10
78.7548939
20
58.291014
11
78.7548939
21
33.4863272
0
LINE
8
DEFAULT_255_2_778
10
4.3408202
20
45.8886706
11
8.0615232
21
45.8886706
0
LINE
8
DEFAULT_255_2_778
10
5.5810678
20
33.4863272
11
8.0615364
21
33.4863272
0
LINE
8
DEFAULT_4_2_778
10
4.3408334
20
43.4082019
11
4.3408334
21
48.3691393
0
LINE
8
DEFAULT_4_2_778
10
1.8603647
20
45.8886706
11
4.3408334
21
45.8886706
0
LINE
8
DEFAULT_4_2_778
10
5.5810678
20
31.0058585
11
5.5810678
21
35.9667959
0
LINE
8
DEFAULT_4_2_778
10
3.1005991
20
33.4863272
11
5.5810678
21
33.4863272
0
ARC
8
0
10
35.4056049
20
45.9449814
40
1.2978829
50
231.0982984
51
267.3983581
0
ARC
8
0
10
35.4056155
20
45.9483483
40
1.3005114
50
185.9980714
51
231.1910895
0
ARC
8
0
10
35.4231799
20
45.9499567
40
1.3181478
50
182.6648746
51
185.9878179
0
ARC
8
0
10
35.403023
20
45.8297487
40
1.2979035
50
141.0985122
51
177.3980084
0
ARC
8
0
10
35.4063622
20
45.8297635
40
1.3004946
50
95.9978248
51
141.1914042
0
ARC
8
0
10
35.40797
20
45.812193
40
1.3181371
50
92.6645492
51
95.9875268
0
ARC
8
0
10
35.2877789
20
45.8323598
40
1.2978829
50
51.0982984
51
87.3983581
0
ARC
8
0
10
35.2877684
20
45.8289929
40
1.3005114
50
5.9980714
51
51.1910895
0
ARC
8
0
10
35.270204
20
45.8273845
40
1.3181478
50
2.6648746
51
5.9878179
0
ARC
8
0
10
32.9225531
20
45.9475928
40
1.2979024
50
182.6020092
51
218.90155
0
ARC
8
0
10
32.9258952
20
45.9475793
40
1.3004964
50
218.8086217
51
264.0021185
0
ARC
8
0
10
32.9275012
20
45.9651375
40
1.3181264
50
264.0124417
51
267.3354369
0
ARC
8
0
10
32.8073093
20
45.9449816
40
1.2978832
50
272.6016841
51
308.9016987
0
ARC
8
0
10
32.8072998
20
45.9483492
40
1.3005114
50
308.8088521
51
354.0018893
0
ARC
8
0
10
32.7897353
20
45.9499567
40
1.3181478
50
354.0121821
51
357.3351254
0
ARC
8
0
10
32.8098934
20
45.8297484
40
1.2979024
50
2.6020092
51
38.90155
0
ARC
8
0
10
32.8065513
20
45.8297619
40
1.3004964
50
38.8086217
51
84.0021185
0
ARC
8
0
10
32.8049454
20
45.8122037
40
1.3181264
50
84.0124417
51
87.3354369
0
ARC
8
0
10
35.4056122
20
33.542653
40
1.2978982
50
231.0984336
51
267.3980658
0
ARC
8
0
10
35.4056094
20
33.5460029
40
1.3005051
50
185.9980179
51
231.1912114
0
ARC
8
0
10
35.4231689
20
33.5476121
40
1.3181367
50
182.6648471
51
185.9878268
0
ARC
8
0
10
35.403018
20
33.4274059
40
1.2978985
50
141.0984364
51
177.3980237
0
ARC
8
0
10
35.4063685
20
33.4274098
40
1.3005052
50
95.9980572
51
141.1912697
0
ARC
8
0
10
35.4079768
20
33.4098502
40
1.3181368
50
92.6648471
51
95.9878268
0
ARC
8
0
10
35.2877713
20
33.4300026
40
1.297897
50
51.0983714
51
87.3980482
0
ARC
8
0
10
35.2877728
20
33.4266498
40
1.3005069
50
5.9980746
51
51.1911855
0
ARC
8
0
10
35.2702257
20
33.4250425
40
1.3181261
50
2.664861
51
5.9878583
0
ARC
8
0
10
32.9225479
20
33.5452478
40
1.297897
50
182.6019518
51
218.9016286
0
ARC
8
0
10
32.9259006
20
33.5452463
40
1.3005069
50
218.8088145
51
264.0019254
0
ARC
8
0
10
32.927508
20
33.5627935
40
1.3181261
50
264.0121417
51
267.335139
0
ARC
8
0
10
32.807302
20
33.5426532
40
1.2978985
50
272.6019763
51
308.9015636
0
ARC
8
0
10
32.8073059
20
33.5460038
40
1.3005052
50
308.8087303
51
354.0019428
0
ARC
8
0
10
32.7897463
20
33.5476121
40
1.3181368
50
354.0121732
51
357.3351529
0
ARC
8
0
10
32.8098984
20
33.4274056
40
1.2978973
50
2.6019939
51
38.9016258
0
ARC
8
0
10
32.806545
20
33.4274082
40
1.300507
50
38.8087562
51
84.0018861
0
ARC
8
0
10
32.8049385
20
33.4098609
40
1.3181261
50
84.0121416
51
87.335139
0
ARC
8
0
10
35.4056069
20
58.3473284
40
1.2978866
50
231.0983277
51
267.3982791
0
ARC
8
0
10
35.4056134
20
58.3506908
40
1.3005092
50
185.998042
51
231.1911317
0
ARC
8
0
10
35.4231673
20
58.3522988
40
1.3181351
50
182.6648472
51
185.987827
0
ARC
8
0
10
35.4030226
20
58.2320927
40
1.2979032
50
141.0985109
51
177.3980298
0
ARC
8
0
10
35.4063624
20
58.2321062
40
1.3004954
50
95.9978313
51
141.1913755
0
ARC
8
0
10
35.40797
20
58.2145363
40
1.3181371
50
92.6645492
51
95.9875268
0
ARC
8
0
10
35.2877776
20
58.2346998
40
1.2978863
50
51.0983497
51
87.3983069
0
ARC
8
0
10
35.2877703
20
58.2313372
40
1.3005095
50
5.9980417
51
51.191131
0
ARC
8
0
10
35.2702166
20
58.2297292
40
1.3181352
50
2.6648472
51
5.987827
0
ARC
8
0
10
32.9225516
20
58.3499355
40
1.2979008
50
182.6019802
51
218.9015717
0
ARC
8
0
10
32.9258962
20
58.3499246
40
1.3004985
50
218.8086624
51
264.0020814
0
ARC
8
0
10
32.9275012
20
58.3674811
40
1.3181265
50
264.0124417
51
267.3354368
0
ARC
8
0
10
32.8073073
20
58.3473286
40
1.2978869
50
272.601763
51
308.9016695
0
ARC
8
0
10
32.807302
20
58.3506916
40
1.3005092
50
308.80881
51
354.0019187
0
ARC
8
0
10
32.7897479
20
58.3522988
40
1.3181351
50
354.012173
51
357.3351528
0
ARC
8
0
10
32.8098937
20
58.2320923
40
1.297902
50
2.6019878
51
38.9015513
0
ARC
8
0
10
32.8065511
20
58.2321046
40
1.3004972
50
38.8086504
51
84.002112
0
ARC
8
0
10
32.8049453
20
58.214547
40
1.3181265
50
84.0124417
51
87.3354369
0
LINE
8
DEFAULT_255_2_778_064_085
10
11.7822395
20
35.9667959
11
11.7822395
21
60.7714827
0
ARC
8
0
10
14.2598177
20
33.4834263
40
1.2373368
50
237.4064552
51
270.1338443
0
ARC
8
0
10
14.2593323
20
33.4829642
40
1.2366862
50
186.4511465
51
237.4138698
0
ARC
8
0
10
14.286725
20
33.4860419
40
1.2642513
50
179.9870722
51
186.4502645
0
ARC
8
0
10
14.2598082
20
33.4892186
40
1.2373378
50
147.4065042
51
180.1338866
0
ARC
8
0
10
14.2593436
20
33.4897046
40
1.2366845
50
96.4510911
51
147.4138807
0
ARC
8
0
10
14.2624229
20
33.4623087
40
1.2642529
50
89.9870721
51
96.4502643
0
ARC
8
0
10
14.265599
20
33.4892262
40
1.2373387
50
57.4065306
51
90.1338625
0
ARC
8
0
10
14.266086
20
33.489692
40
1.236684
50
6.4510914
51
57.4139155
0
ARC
8
0
10
14.2386845
20
33.4866125
40
1.2642581
50
359.987072
51
6.450246
0
ARC
8
0
10
14.2656093
20
33.4834364
40
1.2373366
50
327.4064861
51
0.1338596
0
ARC
8
0
10
14.2660709
20
33.4829514
40
1.2366863
50
276.4511647
51
327.4138983
0
ARC
8
0
10
14.2629934
20
33.5103457
40
1.2642529
50
269.9870721
51
276.4502643
0
LINE
8
DEFAULT_255_2_778
10
14.2627081
20
32.2460929
11
14.2627081
21
32.2460929
0
ARC
8
0
10
12.1409887
20
29.6975142
40
6.3225109
50
108.6831152
51
116.6837069
0
ARC
8
0
10
11.8358787
20
30.6116978
40
5.3587646
50
96.7141015
51
108.7238704
0
ARC
8
0
10
11.7829539
20
30.9769452
40
4.9898442
50
90.0082039
51
96.6008979
0
ARC
8
0
10
11.7723169
20
30.8389016
40
5.1278973
50
74.3209346
51
89.889132
0
ARC
8
0
10
11.5457681
20
30.0087795
40
5.9883588
50
65.5842943
51
74.3804503
0
ARC
8
0
10
11.2487599
20
29.3216104
40
6.7368578
50
63.424167
51
65.6999364
0
ARC
8
0
10
9.2988803
20
33.4834263
40
1.2373368
50
237.4064552
51
270.1338443
0
ARC
8
0
10
9.2983949
20
33.4829642
40
1.2366862
50
186.4511465
51
237.4138698
0
ARC
8
0
10
9.3257876
20
33.4860419
40
1.2642513
50
179.9870722
51
186.4502645
0
ARC
8
0
10
9.2988708
20
33.4892186
40
1.2373378
50
147.4065042
51
180.1338866
0
ARC
8
0
10
9.2984062
20
33.4897046
40
1.2366845
50
96.4510911
51
147.4138807
0
ARC
8
0
10
9.3014855
20
33.4623087
40
1.2642529
50
89.9870721
51
96.4502643
0
ARC
8
0
10
9.3046616
20
33.4892262
40
1.2373387
50
57.4065306
51
90.1338625
0
ARC
8
0
10
9.3051486
20
33.489692
40
1.236684
50
6.4510914
51
57.4139155
0
ARC
8
0
10
9.2777471
20
33.4866125
40
1.2642581
50
359.987072
51
6.450246
0
ARC
8
0
10
9.3046719
20
33.4834364
40
1.2373366
50
327.4064861
51
0.1338596
0
ARC
8
0
10
9.3051336
20
33.4829514
40
1.2366863
50
276.4511647
51
327.4138983
0
ARC
8
0
10
9.302056
20
33.5103457
40
1.2642529
50
269.9870721
51
276.4502643
0
LINE
8
DEFAULT_255_2_778
10
9.3017708
20
32.2460929
11
9.3017708
21
32.2460929
0
ARC
8
0
10
14.2598169
20
45.8857735
40
1.2373406
50
237.406606
51
270.1338807
0
ARC
8
0
10
14.2593283
20
45.885304
40
1.2366819
50
186.4510362
51
237.4139612
0
ARC
8
0
10
14.2867386
20
45.8883853
40
1.2642649
50
179.9870719
51
186.4502275
0
ARC
8
0
10
14.2598087
20
45.8915626
40
1.2373382
50
147.4065045
51
180.1339139
0
ARC
8
0
10
14.2593425
20
45.8920489
40
1.2366836
50
96.4510451
51
147.4138535
0
ARC
8
0
10
14.2624229
20
45.8646522
40
1.2642529
50
89.987072
51
96.4502643
0
ARC
8
0
10
14.2655994
20
45.8915677
40
1.2373406
50
57.406606
51
90.1338807
0
ARC
8
0
10
14.266088
20
45.8920372
40
1.2366819
50
6.4510362
51
57.4139612
0
ARC
8
0
10
14.2386776
20
45.8889559
40
1.2642649
50
359.9870719
51
6.4502275
0
ARC
8
0
10
14.2656076
20
45.8857786
40
1.2373382
50
327.4065045
51
0.1339139
0
ARC
8
0
10
14.2660738
20
45.8852923
40
1.2366836
50
276.4510451
51
327.4138535
0
ARC
8
0
10
14.2629934
20
45.912689
40
1.2642529
50
269.987072
51
276.4502643
0
LINE
8
DEFAULT_255_2_778
10
14.2627081
20
44.6484363
11
14.2627081
21
44.6484363
0
ARC
8
0
10
12.1409887
20
42.0998576
40
6.3225109
50
108.6831152
51
116.6837069
0
ARC
8
0
10
11.8358787
20
43.0140412
40
5.3587646
50
96.7141015
51
108.7238704
0
ARC
8
0
10
11.7829539
20
43.3792886
40
4.9898442
50
90.0082039
51
96.6008979
0
ARC
8
0
10
11.7723169
20
43.241245
40
5.1278973
50
74.3209346
51
89.889132
0
ARC
8
0
10
11.5457681
20
42.4111229
40
5.9883588
50
65.5842943
51
74.3804503
0
ARC
8
0
10
11.2487599
20
41.7239538
40
6.7368578
50
63.424167
51
65.6999364
0
ARC
8
0
10
9.2988795
20
45.8857735
40
1.2373406
50
237.406606
51
270.1338807
0
ARC
8
0
10
9.298391
20
45.885304
40
1.2366819
50
186.4510362
51
237.4139612
0
ARC
8
0
10
9.3258013
20
45.8883853
40
1.2642649
50
179.9870719
51
186.4502275
0
ARC
8
0
10
9.2988713
20
45.8915626
40
1.2373382
50
147.4065045
51
180.1339139
0
ARC
8
0
10
9.2984051
20
45.8920489
40
1.2366836
50
96.4510451
51
147.4138535
0
ARC
8
0
10
9.3014855
20
45.8646522
40
1.2642529
50
89.987072
51
96.4502643
0
ARC
8
0
10
9.304662
20
45.8915677
40
1.2373406
50
57.406606
51
90.1338807
0
ARC
8
0
10
9.3051506
20
45.8920372
40
1.2366819
50
6.4510362
51
57.4139612
0
ARC
8
0
10
9.2777403
20
45.8889559
40
1.2642649
50
359.9870719
51
6.4502275
0
ARC
8
0
10
9.3046703
20
45.8857786
40
1.2373382
50
327.4065045
51
0.1339139
0
ARC
8
0
10
9.3051365
20
45.8852923
40
1.2366836
50
276.4510451
51
327.4138535
0
ARC
8
0
10
9.302056
20
45.912689
40
1.2642529
50
269.987072
51
276.4502643
0
LINE
8
DEFAULT_255_2_778
10
9.3017708
20
44.6484363
11
9.3017708
21
44.6484363
0
ARC
8
0
10
14.2598172
20
58.2881189
40
1.2373426
50
237.4066515
51
270.1338666
0
ARC
8
0
10
14.2593274
20
58.2876466
40
1.2366809
50
186.4510134
51
237.4139824
0
ARC
8
0
10
14.2867403
20
58.2907287
40
1.2642666
50
179.9870717
51
186.4502273
0
ARC
8
0
10
14.2598098
20
58.2939062
40
1.2373394
50
147.4065235
51
180.1339239
0
ARC
8
0
10
14.2593419
20
58.2943927
40
1.2366831
50
96.4510221
51
147.4138398
0
ARC
8
0
10
14.2624229
20
58.2669956
40
1.2642529
50
89.987072
51
96.4502642
0
ARC
8
0
10
14.2655991
20
58.2939091
40
1.2373426
50
57.4066515
51
90.1338666
0
ARC
8
0
10
14.2660888
20
58.2943814
40
1.2366809
50
6.4510134
51
57.4139824
0
ARC
8
0
10
14.238676
20
58.2912993
40
1.2642666
50
359.9870717
51
6.4502273
0
ARC
8
0
10
14.2656065
20
58.2881218
40
1.2373394
50
327.4065235
51
0.1339239
0
ARC
8
0
10
14.2660744
20
58.2876353
40
1.2366831
50
276.4510221
51
327.4138398
0
ARC
8
0
10
14.2629934
20
58.3150324
40
1.2642529
50
269.987072
51
276.4502642
0
LINE
8
DEFAULT_255_2_778
10
14.2627081
20
57.0507797
11
14.2627081
21
57.0507797
0
ARC
8
0
10
12.1409887
20
54.502201
40
6.3225109
50
108.6831152
51
116.6837069
0
ARC
8
0
10
11.8358787
20
55.4163846
40
5.3587646
50
96.7141015
51
108.7238704
0
ARC
8
0
10
11.7829539
20
55.781632
40
4.9898442
50
90.0082039
51
96.6008979
0
ARC
8
0
10
11.7723169
20
55.6435884
40
5.1278973
50
74.3209346
51
89.889132
0
ARC
8
0
10
11.5457681
20
54.8134663
40
5.9883588
50
65.5842943
51
74.3804503
0
ARC
8
0
10
11.2487599
20
54.1262972
40
6.7368578
50
63.424167
51
65.6999364
0
ARC
8
0
10
9.2988798
20
58.2881189
40
1.2373426
50
237.4066515
51
270.1338666
0
ARC
8
0
10
9.2983901
20
58.2876466
40
1.2366809
50
186.4510134
51
237.4139824
0
ARC
8
0
10
9.3258029
20
58.2907287
40
1.2642666
50
179.9870717
51
186.4502273
0
ARC
8
0
10
9.2988724
20
58.2939062
40
1.2373394
50
147.4065235
51
180.1339239
0
ARC
8
0
10
9.2984046
20
58.2943927
40
1.2366831
50
96.4510221
51
147.4138398
0
ARC
8
0
10
9.3014855
20
58.2669956
40
1.2642529
50
89.987072
51
96.4502642
0
ARC
8
0
10
9.3046617
20
58.2939091
40
1.2373426
50
57.4066515
51
90.1338666
0
ARC
8
0
10
9.3051515
20
58.2943814
40
1.2366809
50
6.4510134
51
57.4139824
0
ARC
8
0
10
9.2777387
20
58.2912993
40
1.2642666
50
359.9870717
51
6.4502273
0
ARC
8
0
10
9.3046691
20
58.2881218
40
1.2373394
50
327.4065235
51
0.1339239
0
ARC
8
0
10
9.305137
20
58.2876353
40
1.2366831
50
276.4510221
51
327.4138398
0
ARC
8
0
10
9.302056
20
58.3150324
40
1.2642529
50
269.987072
51
276.4502642
0
LINE
8
DEFAULT_255_2_778
10
9.3017708
20
57.0507797
11
9.3017708
21
57.0507797
0
ENDSEC
0
EOF