0
SECTION
2
HEADER
0
ENDSEC
0
SECTION
2
TABLES
0
TABLE
2
LTYPE
0
LTYPE
72
65
70
64
2
CONTINUOUS
3
______
73
0
40
0
0
LTYPE
72
65
70
64
2
DASH_DEFAULT_255_2_778_064_085
3
______
73
2
40
2
49
-0.19921568073322585
49
0.2645833259738156
0
ENDTAB
0
TABLE
2
LAYER
0
LAYER
2
DEFAULT_255_2_778
70
0
62
255
6
CONTINUOUS
0
LAYER
2
DEFAULT_4_2_778
70
0
62
4
6
CONTINUOUS
0
LAYER
2
DEFAULT_255_2_778_064_085
70
0
62
255
6
DASH_DEFAULT_255_2_778_064_085
0
ENDTAB
0
ENDSEC
0
SECTION
2
ENTITIES
0
LINE
8
DEFAULT_255_2_778
10
26.6650515
20
60.7714827
11
26.6650515
21
55.8105453
0
LINE
8
DEFAULT_255_2_778
10
29.1455202
20
60.7714827
11
29.1455202
21
55.8105453
0
LINE
8
DEFAULT_255_2_778
10
26.6650515
20
48.3691393
11
26.6650515
21
43.4082019
0
LINE
8
DEFAULT_255_2_778
10
29.1455202
20
48.3691393
11
29.1455202
21
43.4082019
0
LINE
8
DEFAULT_255_2_778
10
26.6650515
20
35.9667959
11
26.6650515
21
31.0058585
0
LINE
8
DEFAULT_255_2_778
10
29.1455202
20
35.9667959
11
29.1455202
21
31.0058585
0
LINE
8
DEFAULT_255_2_778
10
29.1455202
20
45.8886706
11
53.950207
21
45.8886706
0
LINE
8
DEFAULT_255_2_778
10
29.1455202
20
33.4863272
11
53.950207
21
33.4863272
0
LINE
8
DEFAULT_255_2_778
10
29.1455202
20
58.291014
11
53.950207
21
58.291014
0
LINE
8
DEFAULT_255_2_778
10
16.7431768
20
58.291014
11
26.6650515
21
58.291014
0
LINE
8
DEFAULT_255_2_778
10
16.7431768
20
45.8886706
11
26.6650515
21
45.8886706
0
LINE
8
DEFAULT_255_2_778
10
16.7431768
20
33.4863272
11
26.6650515
21
33.4863272
0
LINE
8
DEFAULT_255_2_778
10
3.1005859
20
58.291014
11
9.3017576
21
58.291014
0
LINE
8
DEFAULT_255_2_778
10
4.3408334
20
45.8886706
11
9.3017708
21
45.8886706
0
LINE
8
DEFAULT_255_2_778
10
5.5810545
20
33.4863272
11
9.3017576
21
33.4863272
0
LINE
8
DEFAULT_4_2_778
10
3.1005991
20
55.8105453
11
3.1005991
21
60.7714827
0
LINE
8
DEFAULT_4_2_778
10
0.6201304
20
58.291014
11
3.1005991
21
58.291014
0
LINE
8
DEFAULT_4_2_778
10
4.3408334
20
43.4082019
11
4.3408334
21
48.3691393
0
LINE
8
DEFAULT_4_2_778
10
1.8603647
20
45.8886706
11
4.3408334
21
45.8886706
0
LINE
8
DEFAULT_4_2_778
10
5.5810678
20
31.0058585
11
5.5810678
21
35.9667959
0
LINE
8
DEFAULT_4_2_778
10
3.1005991
20
33.4863272
11
5.5810678
21
33.4863272
0
LINE
8
DEFAULT_255_2_778
10
26.6650515
20
23.5644525
11
26.6650515
21
18.6035151
0
LINE
8
DEFAULT_255_2_778
10
29.1455202
20
23.5644525
11
29.1455202
21
18.6035151
0
LINE
8
DEFAULT_255_2_778
10
26.6650515
20
11.1621091
11
26.6650515
21
6.2011717
0
LINE
8
DEFAULT_255_2_778
10
29.1455202
20
11.1621091
11
29.1455202
21
6.2011717
0
LINE
8
DEFAULT_255_2_778
10
26.6650515
20
-1.2402343
11
26.6650515
21
-6.2011717
0
LINE
8
DEFAULT_255_2_778
10
29.1455202
20
-1.2402343
11
29.1455202
21
-6.2011717
0
LINE
8
DEFAULT_255_2_778
10
24.1845829
20
33.4863272
11
24.1845829
21
21.0839838
0
LINE
8
DEFAULT_255_2_778
10
24.1845829
20
21.0839838
11
26.6650515
21
21.0839838
0
LINE
8
DEFAULT_255_2_778
10
36.5869263
20
21.0839838
11
36.5869263
21
27.2851555
0
LINE
8
DEFAULT_255_2_778
10
36.5869263
20
27.2851555
11
46.508801
21
27.2851555
0
LINE
8
DEFAULT_255_2_778
10
46.508801
20
27.2851555
11
46.508801
21
33.4863272
0
LINE
8
DEFAULT_255_2_778
10
21.7041142
20
45.8886706
11
21.7041142
21
8.6816404
0
LINE
8
DEFAULT_255_2_778
10
21.7041142
20
8.6816404
11
26.6650515
21
8.6816404
0
LINE
8
DEFAULT_255_2_778
10
36.5869263
20
8.6816404
11
36.5869263
21
14.8828121
0
LINE
8
DEFAULT_255_2_778
10
36.5869263
20
14.8828121
11
48.9892697
21
14.8828121
0
LINE
8
DEFAULT_255_2_778
10
48.9892697
20
14.8828121
11
48.9892697
21
45.8886706
0
LINE
8
DEFAULT_255_2_778
10
19.2236455
20
58.291014
11
19.2236455
21
-3.720703
0
LINE
8
DEFAULT_255_2_778
10
19.2236455
20
-3.720703
11
26.6650515
21
-3.720703
0
LINE
8
DEFAULT_255_2_778
10
36.5869263
20
-3.720703
11
36.5869263
21
2.4804687
0
LINE
8
DEFAULT_255_2_778
10
36.5869263
20
2.4804687
11
51.4697384
21
2.4804687
0
LINE
8
DEFAULT_255_2_778
10
51.4697384
20
2.4804687
11
51.4697384
21
58.291014
0
LINE
8
DEFAULT_255_2_778
10
55.1904414
20
23.5644525
11
55.1904414
21
18.6035151
0
LINE
8
DEFAULT_255_2_778
10
57.6709101
20
23.5644525
11
57.6709101
21
18.6035151
0
LINE
8
DEFAULT_255_2_778
10
55.1904414
20
11.1621091
11
55.1904414
21
6.2011717
0
LINE
8
DEFAULT_255_2_778
10
57.6709101
20
11.1621091
11
57.6709101
21
6.2011717
0
LINE
8
DEFAULT_255_2_778
10
55.1904414
20
-1.2402343
11
55.1904414
21
-6.2011717
0
LINE
8
DEFAULT_255_2_778
10
57.6709101
20
-1.2402343
11
57.6709101
21
-6.2011717
0
LINE
8
DEFAULT_255_2_778
10
57.6708968
20
21.0839838
11
63.8720685
21
21.0839838
0
LINE
8
DEFAULT_255_2_778
10
57.6708968
20
8.6816404
11
63.8720685
21
8.6816404
0
LINE
8
DEFAULT_255_2_778
10
57.6708968
20
-3.720703
11
63.8720685
21
-3.720703
0
LINE
8
DEFAULT_255_2_778
10
63.8720818
20
21.0839838
11
63.8720818
21
-3.720703
0
LINE
8
DEFAULT_255_2_778
10
60.1513655
20
55.8105321
11
61.3915999
21
57.0507664
0
ARC
8
0
10
72.5496523
20
45.9594072
40
6.2719096
50
258.1624229
51
270.037179
0
ARC
8
0
10
72.5291202
20
45.8514681
40
6.1620545
50
241.8357318
51
258.1433902
0
ARC
8
0
10
72.5447255
20
45.8789307
40
6.1936312
50
199.8829226
51
241.8283752
0
ARC
8
0
10
72.5410928
20
45.8712076
40
6.1875913
50
186.2170456
51
199.8271122
0
ARC
8
0
10
72.676153
20
45.8873264
40
6.3236028
50
179.9878208
51
186.2297087
0
ARC
8
0
10
72.6244587
20
45.8927404
40
6.2719096
50
168.162423
51
180.037179
0
ARC
8
0
10
72.5165278
20
45.9132702
40
6.162063
50
151.8357499
51
168.1433843
0
ARC
8
0
10
72.5439801
20
45.8976696
40
6.1936285
50
109.8829179
51
151.8283865
0
ARC
8
0
10
72.5362577
20
45.9013027
40
6.1875885
50
96.2170375
51
109.8271145
0
ARC
8
0
10
72.552378
20
45.7662327
40
6.3236098
50
89.9878208
51
96.229705
0
ARC
8
0
10
72.557792
20
45.8179341
40
6.2719096
50
78.162423
51
90.037179
0
ARC
8
0
10
72.5783217
20
45.925865
40
6.162063
50
61.8357499
51
78.1433843
0
ARC
8
0
10
72.5627211
20
45.8984127
40
6.1936285
50
19.8829179
51
61.8283865
0
ARC
8
0
10
72.5663543
20
45.9061351
40
6.1875885
50
6.2170375
51
19.8271145
0
ARC
8
0
10
72.4312843
20
45.8900148
40
6.3236098
50
359.9878208
51
6.229705
0
ARC
8
0
10
72.4829895
20
45.8846009
40
6.2719057
50
348.1624195
51
0.0371775
0
ARC
8
0
10
72.590915
20
45.8640726
40
6.1620647
50
331.8357513
51
348.1433786
0
ARC
8
0
10
72.5634613
20
45.8796743
40
6.193632
50
289.8829357
51
331.8283846
0
ARC
8
0
10
72.5711866
20
45.8760388
40
6.1875885
50
276.2170376
51
289.8271146
0
ARC
8
0
10
72.5550663
20
46.0111085
40
6.3236098
50
269.9878208
51
276.229705
0
LINE
8
DEFAULT_255_2_778
10
72.5537221
20
39.6874989
11
72.5537221
21
39.6874989
0
LINE
8
DEFAULT_255_2_778
10
58.9111378
20
58.2910008
11
65.7324267
21
58.2910008
0
LINE
8
DEFAULT_255_2_778
10
65.7324267
20
58.2910008
11
70.693364
21
52.0898291
0
LINE
8
DEFAULT_255_2_778
10
58.9111444
20
45.8886706
11
66.3525504
21
45.8886706
0
LINE
8
DEFAULT_255_2_778
10
58.9111378
20
33.486314
11
65.7324267
21
33.486314
0
LINE
8
DEFAULT_255_2_778
10
65.7324267
20
33.486314
11
70.693364
21
39.6874857
0
ARC
8
0
10
62.5793343
20
33.4386947
40
1.2347871
50
237.0596196
51
270.1349237
0
ARC
8
0
10
62.5788244
20
33.4382824
40
1.2341637
50
186.4104816
51
237.0690789
0
ARC
8
0
10
62.6063585
20
33.4413831
40
1.261872
50
179.9873135
51
186.4108045
0
ARC
8
0
10
62.579272
20
33.4445686
40
1.2347888
50
147.0596977
51
180.1348449
0
ARC
8
0
10
62.5788604
20
33.4450809
40
1.234165
50
96.4104748
51
147.0692695
0
ARC
8
0
10
62.5819609
20
33.4175838
40
1.2618363
50
89.9872315
51
96.4109738
0
ARC
8
0
10
62.5851468
20
33.4446595
40
1.2347639
50
57.0591853
51
90.1347838
0
ARC
8
0
10
62.5856391
20
33.4450402
40
1.2341767
50
6.4105474
51
57.0687536
0
ARC
8
0
10
62.5581683
20
33.4419435
40
1.2618213
50
359.987239
51
6.411009
0
ARC
8
0
10
62.5852154
20
33.4387567
40
1.2347775
50
327.0594938
51
0.1348353
0
ARC
8
0
10
62.5856169
20
33.4382493
40
1.2341648
50
276.410689
51
327.0691264
0
ARC
8
0
10
62.5825233
20
33.465705
40
1.2617942
50
269.9872319
51
276.4110843
0
LINE
8
DEFAULT_255_2_778
10
62.5822421
20
32.2039111
11
62.5822421
21
32.2039111
0
ARC
8
0
10
62.5793344
20
45.8410343
40
1.2347832
50
237.0594998
51
270.1349197
0
ARC
8
0
10
62.5788289
20
45.840629
40
1.2341682
50
186.410437
51
237.0689637
0
ARC
8
0
10
62.6063659
20
45.8437305
40
1.2618793
50
179.9873137
51
186.4107863
0
ARC
8
0
10
62.5792651
20
45.846916
40
1.2347819
50
147.0596047
51
180.1348442
0
ARC
8
0
10
62.5788596
20
45.8474232
40
1.2341659
50
96.410431
51
147.0691319
0
ARC
8
0
10
62.5819609
20
45.8199273
40
1.2618363
50
89.9872315
51
96.4109737
0
ARC
8
0
10
62.5851472
20
45.8470012
40
1.2347656
50
57.0592618
51
90.1348029
0
ARC
8
0
10
62.5856436
20
45.8473868
40
1.2341722
50
6.410592
51
57.0688687
0
ARC
8
0
10
62.5581811
20
45.8442911
40
1.2618086
50
359.987232
51
6.4110477
0
ARC
8
0
10
62.5852088
20
45.8411039
40
1.2347841
50
327.0595846
51
0.1348427
0
ARC
8
0
10
62.585616
20
45.8405916
40
1.2341639
50
276.4107328
51
327.0692641
0
ARC
8
0
10
62.5825233
20
45.8680485
40
1.2617942
50
269.987232
51
276.4110843
0
LINE
8
DEFAULT_255_2_778
10
62.5822421
20
44.6062545
11
62.5822421
21
44.6062545
0
ARC
8
0
10
62.5793344
20
58.2434038
40
1.2347832
50
237.0595003
51
270.13492
0
ARC
8
0
10
62.5788283
20
58.2429983
40
1.2341677
50
186.4104644
51
237.0689802
0
ARC
8
0
10
62.6063659
20
58.2460993
40
1.2618793
50
179.9873205
51
186.4107842
0
ARC
8
0
10
62.5792691
20
58.2492848
40
1.2347859
50
147.0596618
51
180.1348554
0
ARC
8
0
10
62.5788594
20
58.2497939
40
1.2341653
50
96.4104248
51
147.0691569
0
ARC
8
0
10
62.5819609
20
58.2222974
40
1.2618363
50
89.9872315
51
96.4109737
0
ARC
8
0
10
62.5851469
20
58.2493691
40
1.2347678
50
57.0593053
51
90.134788
0
ARC
8
0
10
62.5856429
20
58.2497566
40
1.2341728
50
6.4105492
51
57.0688512
0
ARC
8
0
10
62.558174
20
58.2466597
40
1.2618157
50
359.987232
51
6.4110293
0
ARC
8
0
10
62.5852101
20
58.2434729
40
1.2347828
50
327.0595685
51
0.1348272
0
ARC
8
0
10
62.5856156
20
58.2429624
40
1.234165
50
276.4107462
51
327.0692181
0
ARC
8
0
10
62.5825233
20
58.2704181
40
1.2617942
50
269.987232
51
276.4110843
0
LINE
8
DEFAULT_255_2_778
10
62.5822421
20
57.0086241
11
62.5822421
21
57.0086241
0
LINE
8
DEFAULT_255_2_778
10
63.8720685
20
59.5312351
11
65.1123029
21
60.7714695
0
LINE
8
DEFAULT_255_2_778
10
60.1513655
20
43.4081887
11
61.3915999
21
44.648423
0
LINE
8
DEFAULT_255_2_778
10
63.8720685
20
47.1288917
11
65.1123029
21
48.3691261
0
LINE
8
DEFAULT_255_2_778
10
60.1513655
20
31.0058453
11
61.3915999
21
32.2460796
0
LINE
8
DEFAULT_255_2_778
10
63.8720685
20
34.7265483
11
65.1123029
21
35.9667826
0
LINE
8
DEFAULT_255_2_778
10
29.1455202
20
21.0839838
11
31.6259889
21
21.0839838
0
LINE
8
DEFAULT_255_2_778
10
29.1455202
20
8.6816404
11
31.6259889
21
8.6816404
0
LINE
8
DEFAULT_255_2_778
10
29.1455202
20
-3.720703
11
31.6259889
21
-3.720703
0
LINE
8
DEFAULT_255_2_778
10
41.5478504
20
21.0839838
11
55.1904282
21
21.0839838
0
LINE
8
DEFAULT_255_2_778
10
41.5478504
20
8.6816404
11
55.1904282
21
8.6816404
0
LINE
8
DEFAULT_255_2_778
10
41.5478504
20
-3.720703
11
55.1904282
21
-3.720703
0
ARC
8
0
10
32.8630206
20
-3.7733054
40
1.2345802
50
179.6886226
51
209.6948589
0
ARC
8
0
10
32.7787545
20
-3.8193661
40
1.138564
50
209.7820175
51
257.5549712
0
ARC
8
0
10
32.8042242
20
-3.7140313
40
1.2469143
50
257.4552025
51
270.1129029
0
ARC
8
0
10
32.810374
20
-3.6722757
40
1.2886729
50
269.835816
51
298.5316266
0
ARC
8
0
10
32.8767649
20
-3.7668887
40
1.1739125
50
297.8904452
51
359.5299377
0
ARC
8
0
10
35.2328663
20
-3.7647439
40
1.182287
50
180.5706771
51
249.7325125
0
ARC
8
0
10
35.2918402
20
-3.6574976
40
1.3034486
50
248.933695
51
270.1208973
0
ARC
8
0
10
35.2917832
20
-3.6104274
40
1.3505188
50
270.1191025
51
306.9748809
0
ARC
8
0
10
35.4242391
20
-3.7443611
40
1.1641259
50
305.7314141
51
358.9055798
0
ARC
8
0
10
37.767165
20
-3.7828476
40
1.1791245
50
179.2102825
51
179.999731
0
ARC
8
0
10
37.7662887
20
-3.782824
40
1.178248
50
180.0008789
51
224.9994215
0
ARC
8
0
10
37.7662649
20
-3.7828245
40
1.1782309
50
225.0002232
51
269.9989618
0
ARC
8
0
10
37.7662378
20
-3.779834
40
1.1812214
50
270.0002759
51
270.789016
0
ARC
8
0
10
37.7809056
20
-3.6229441
40
1.3380002
50
270.0684394
51
305.3737716
0
ARC
8
0
10
37.8974812
20
-3.7448827
40
1.1713412
50
304.1770497
51
358.9378382
0
ARC
8
0
10
40.2712767
20
-3.7716893
40
1.2026663
50
179.7573529
51
213.3787585
0
ARC
8
0
10
40.2445318
20
-3.7853069
40
1.1728458
50
213.5420648
51
257.381331
0
ARC
8
0
10
40.2671193
20
-3.6964972
40
1.2644476
50
257.2616841
51
270.092906
0
ARC
8
0
10
40.2684248
20
-3.6373301
40
1.3236134
50
270.0322429
51
304.7568733
0
ARC
8
0
10
40.3716859
20
-3.7467127
40
1.1750934
50
303.660783
51
359.0304739
0
ARC
8
0
10
32.8630098
20
8.6290376
40
1.2345694
50
179.6887003
51
209.6949874
0
ARC
8
0
10
32.7787582
20
8.5829837
40
1.138569
50
209.7820914
51
257.5548383
0
ARC
8
0
10
32.8042233
20
8.6882977
40
1.246898
50
257.4550779
51
270.112945
0
ARC
8
0
10
32.8103731
20
8.7300642
40
1.2886675
50
269.8358536
51
298.5317965
0
ARC
8
0
10
32.8767586
20
8.6354614
40
1.1739188
50
297.8906295
51
359.5299039
0
ARC
8
0
10
35.2328684
20
8.6376031
40
1.1822891
50
180.5705602
51
249.7324411
0
ARC
8
0
10
35.2918402
20
8.7448478
40
1.3034486
50
248.9336946
51
270.1208971
0
ARC
8
0
10
35.2917818
20
8.7919187
40
1.3505196
50
270.1191582
51
306.9749295
0
ARC
8
0
10
35.4242413
20
8.657984
40
1.1641237
50
305.7313601
51
358.9053869
0
ARC
8
0
10
37.7671065
20
8.6194941
40
1.179066
50
179.2102631
51
179.999731
0
ARC
8
0
10
37.7663007
20
8.6195263
40
1.1782601
50
180.0012964
51
224.9991778
0
ARC
8
0
10
37.7662639
20
8.6195193
40
1.1782291
50
225.0002035
51
269.9996673
0
ARC
8
0
10
37.7662515
20
8.6205275
40
1.1792373
50
270.0002689
51
270.7896785
0
ARC
8
0
10
37.7809045
20
8.7794001
40
1.337999
50
270.0684846
51
305.3738602
0
ARC
8
0
10
37.8974831
20
8.6574627
40
1.1713394
50
304.1769975
51
358.9376374
0
ARC
8
0
10
40.2712673
20
8.630654
40
1.2026569
50
179.7574446
51
213.3788904
0
ARC
8
0
10
40.244536
20
8.6170439
40
1.1728518
50
213.542141
51
257.3811871
0
ARC
8
0
10
40.2671211
20
8.7058478
40
1.2644475
50
257.2616022
51
270.0928272
0
ARC
8
0
10
40.2684237
20
8.7650139
40
1.3236121
50
270.032289
51
304.7569648
0
ARC
8
0
10
40.3716872
20
8.6556328
40
1.175092
50
303.6607493
51
359.030267
0
ARC
8
0
10
32.8630098
20
21.031381
40
1.2345694
50
179.6887003
51
209.6949874
0
ARC
8
0
10
32.7787582
20
20.9853271
40
1.138569
50
209.7820914
51
257.5548383
0
ARC
8
0
10
32.8042233
20
21.0906411
40
1.246898
50
257.4550779
51
270.112945
0
ARC
8
0
10
32.8103731
20
21.1324076
40
1.2886675
50
269.8358536
51
298.5317965
0
ARC
8
0
10
32.8767586
20
21.0378048
40
1.1739188
50
297.8906295
51
359.5299039
0
ARC
8
0
10
35.2328684
20
21.0399465
40
1.1822891
50
180.5705602
51
249.7324411
0
ARC
8
0
10
35.2918402
20
21.1471912
40
1.3034486
50
248.9336946
51
270.1208971
0
ARC
8
0
10
35.2917818
20
21.1942621
40
1.3505196
50
270.1191582
51
306.9749295
0
ARC
8
0
10
35.4242413
20
21.0603274
40
1.1641237
50
305.7313601
51
358.9053869
0
ARC
8
0
10
37.7671065
20
21.0218375
40
1.179066
50
179.2102631
51
179.999731
0
ARC
8
0
10
37.7663007
20
21.0218697
40
1.1782601
50
180.0012964
51
224.9991778
0
ARC
8
0
10
37.7662639
20
21.0218627
40
1.1782291
50
225.0002035
51
269.9996673
0
ARC
8
0
10
37.7662515
20
21.0228709
40
1.1792373
50
270.0002689
51
270.7896785
0
ARC
8
0
10
37.7809045
20
21.1817435
40
1.337999
50
270.0684846
51
305.3738602
0
ARC
8
0
10
37.8974831
20
21.0598061
40
1.1713394
50
304.1769975
51
358.9376374
0
ARC
8
0
10
40.2712673
20
21.0329974
40
1.2026569
50
179.7574446
51
213.3788904
0
ARC
8
0
10
40.244536
20
21.0193873
40
1.1728518
50
213.542141
51
257.3811871
0
ARC
8
0
10
40.2671211
20
21.1081912
40
1.2644475
50
257.2616022
51
270.0928272
0
ARC
8
0
10
40.2684237
20
21.1673573
40
1.3236121
50
270.032289
51
304.7569648
0
ARC
8
0
10
40.3716872
20
21.0579762
40
1.175092
50
303.6607493
51
359.030267
0
LINE
8
DEFAULT_255_2_778_064_085
10
13.0224738
20
35.9667959
11
13.0224738
21
60.7714827
0
ARC
8
0
10
15.5000515
20
58.2881189
40
1.2373426
50
237.4066515
51
270.1338666
0
ARC
8
0
10
15.4995618
20
58.2876466
40
1.2366809
50
186.4510134
51
237.4139824
0
ARC
8
0
10
15.5269746
20
58.2907287
40
1.2642666
50
179.9870717
51
186.4502273
0
ARC
8
0
10
15.5000441
20
58.2939062
40
1.2373394
50
147.4065235
51
180.1339239
0
ARC
8
0
10
15.4995763
20
58.2943927
40
1.2366831
50
96.4510221
51
147.4138398
0
ARC
8
0
10
15.5026572
20
58.2669956
40
1.2642529
50
89.987072
51
96.4502642
0
ARC
8
0
10
15.5058334
20
58.2939091
40
1.2373426
50
57.4066515
51
90.1338666
0
ARC
8
0
10
15.5063232
20
58.2943814
40
1.2366809
50
6.4510134
51
57.4139824
0
ARC
8
0
10
15.4789104
20
58.2912993
40
1.2642666
50
359.9870717
51
6.4502273
0
ARC
8
0
10
15.5058408
20
58.2881218
40
1.2373394
50
327.4065235
51
0.1339239
0
ARC
8
0
10
15.5063087
20
58.2876353
40
1.2366831
50
276.4510221
51
327.4138398
0
ARC
8
0
10
15.5032277
20
58.3150324
40
1.2642529
50
269.987072
51
276.4502642
0
LINE
8
DEFAULT_255_2_778
10
15.5029425
20
57.0507797
11
15.5029425
21
57.0507797
0
ARC
8
0
10
10.5391142
20
58.2881189
40
1.2373426
50
237.4066515
51
270.1338666
0
ARC
8
0
10
10.5386244
20
58.2876466
40
1.2366809
50
186.4510134
51
237.4139824
0
ARC
8
0
10
10.5660372
20
58.2907287
40
1.2642666
50
179.9870717
51
186.4502273
0
ARC
8
0
10
10.5391068
20
58.2939062
40
1.2373394
50
147.4065235
51
180.1339239
0
ARC
8
0
10
10.5386389
20
58.2943927
40
1.2366831
50
96.4510221
51
147.4138398
0
ARC
8
0
10
10.5417199
20
58.2669956
40
1.2642529
50
89.987072
51
96.4502642
0
ARC
8
0
10
10.5448961
20
58.2939091
40
1.2373426
50
57.4066515
51
90.1338666
0
ARC
8
0
10
10.5453858
20
58.2943814
40
1.2366809
50
6.4510134
51
57.4139824
0
ARC
8
0
10
10.517973
20
58.2912993
40
1.2642666
50
359.9870717
51
6.4502273
0
ARC
8
0
10
10.5449035
20
58.2881218
40
1.2373394
50
327.4065235
51
0.1339239
0
ARC
8
0
10
10.5453713
20
58.2876353
40
1.2366831
50
276.4510221
51
327.4138398
0
ARC
8
0
10
10.5422904
20
58.3150324
40
1.2642529
50
269.987072
51
276.4502642
0
LINE
8
DEFAULT_255_2_778
10
10.5420051
20
57.0507797
11
10.5420051
21
57.0507797
0
ARC
8
0
10
15.5000512
20
45.8857735
40
1.2373406
50
237.406606
51
270.1338807
0
ARC
8
0
10
15.4995627
20
45.885304
40
1.2366819
50
186.4510362
51
237.4139612
0
ARC
8
0
10
15.526973
20
45.8883853
40
1.2642649
50
179.9870719
51
186.4502275
0
ARC
8
0
10
15.500043
20
45.8915626
40
1.2373382
50
147.4065045
51
180.1339139
0
ARC
8
0
10
15.4995768
20
45.8920489
40
1.2366836
50
96.4510451
51
147.4138535
0
ARC
8
0
10
15.5026572
20
45.8646522
40
1.2642529
50
89.987072
51
96.4502643
0
ARC
8
0
10
15.5058337
20
45.8915677
40
1.2373406
50
57.406606
51
90.1338807
0
ARC
8
0
10
15.5063223
20
45.8920372
40
1.2366819
50
6.4510362
51
57.4139612
0
ARC
8
0
10
15.478912
20
45.8889559
40
1.2642649
50
359.9870719
51
6.4502275
0
ARC
8
0
10
15.505842
20
45.8857786
40
1.2373382
50
327.4065045
51
0.1339139
0
ARC
8
0
10
15.5063082
20
45.8852923
40
1.2366836
50
276.4510451
51
327.4138535
0
ARC
8
0
10
15.5032277
20
45.912689
40
1.2642529
50
269.987072
51
276.4502643
0
LINE
8
DEFAULT_255_2_778
10
15.5029425
20
44.6484363
11
15.5029425
21
44.6484363
0
ARC
8
0
10
10.5391139
20
45.8857735
40
1.2373406
50
237.406606
51
270.1338807
0
ARC
8
0
10
10.5386253
20
45.885304
40
1.2366819
50
186.4510362
51
237.4139612
0
ARC
8
0
10
10.5660356
20
45.8883853
40
1.2642649
50
179.9870719
51
186.4502275
0
ARC
8
0
10
10.5391056
20
45.8915626
40
1.2373382
50
147.4065045
51
180.1339139
0
ARC
8
0
10
10.5386395
20
45.8920489
40
1.2366836
50
96.4510451
51
147.4138535
0
ARC
8
0
10
10.5417199
20
45.8646522
40
1.2642529
50
89.987072
51
96.4502643
0
ARC
8
0
10
10.5448964
20
45.8915677
40
1.2373406
50
57.406606
51
90.1338807
0
ARC
8
0
10
10.5453849
20
45.8920372
40
1.2366819
50
6.4510362
51
57.4139612
0
ARC
8
0
10
10.5179746
20
45.8889559
40
1.2642649
50
359.9870719
51
6.4502275
0
ARC
8
0
10
10.5449046
20
45.8857786
40
1.2373382
50
327.4065045
51
0.1339139
0
ARC
8
0
10
10.5453708
20
45.8852923
40
1.2366836
50
276.4510451
51
327.4138535
0
ARC
8
0
10
10.5422904
20
45.912689
40
1.2642529
50
269.987072
51
276.4502643
0
LINE
8
DEFAULT_255_2_778
10
10.5420051
20
44.6484363
11
10.5420051
21
44.6484363
0
ARC
8
0
10
15.500052
20
33.4834263
40
1.2373368
50
237.4064552
51
270.1338443
0
ARC
8
0
10
15.4995667
20
33.4829642
40
1.2366862
50
186.4511465
51
237.4138698
0
ARC
8
0
10
15.5269593
20
33.4860419
40
1.2642513
50
179.9870722
51
186.4502645
0
ARC
8
0
10
15.5000425
20
33.4892186
40
1.2373378
50
147.4065042
51
180.1338866
0
ARC
8
0
10
15.4995779
20
33.4897046
40
1.2366845
50
96.4510911
51
147.4138807
0
ARC
8
0
10
15.5026572
20
33.4623087
40
1.2642529
50
89.9870721
51
96.4502643
0
ARC
8
0
10
15.5058333
20
33.4892262
40
1.2373387
50
57.4065306
51
90.1338625
0
ARC
8
0
10
15.5063203
20
33.489692
40
1.236684
50
6.4510914
51
57.4139155
0
ARC
8
0
10
15.4789188
20
33.4866125
40
1.2642581
50
359.987072
51
6.450246
0
ARC
8
0
10
15.5058437
20
33.4834364
40
1.2373366
50
327.4064861
51
0.1338596
0
ARC
8
0
10
15.5063053
20
33.4829514
40
1.2366863
50
276.4511647
51
327.4138983
0
ARC
8
0
10
15.5032277
20
33.5103457
40
1.2642529
50
269.9870721
51
276.4502643
0
LINE
8
DEFAULT_255_2_778
10
15.5029425
20
32.2460929
11
15.5029425
21
32.2460929
0
ARC
8
0
10
13.381223
20
29.6975142
40
6.3225109
50
108.6831152
51
116.6837069
0
ARC
8
0
10
13.076113
20
30.6116978
40
5.3587646
50
96.7141015
51
108.7238704
0
ARC
8
0
10
13.0231883
20
30.9769452
40
4.9898442
50
90.0082039
51
96.6008979
0
ARC
8
0
10
13.0125513
20
30.8389016
40
5.1278973
50
74.3209346
51
89.889132
0
ARC
8
0
10
12.7860025
20
30.0087795
40
5.9883588
50
65.5842943
51
74.3804503
0
ARC
8
0
10
12.4889943
20
29.3216104
40
6.7368578
50
63.424167
51
65.6999364
0
ARC
8
0
10
10.5391147
20
33.4834263
40
1.2373368
50
237.4064552
51
270.1338443
0
ARC
8
0
10
10.5386293
20
33.4829642
40
1.2366862
50
186.4511465
51
237.4138698
0
ARC
8
0
10
10.566022
20
33.4860419
40
1.2642513
50
179.9870722
51
186.4502645
0
ARC
8
0
10
10.5391052
20
33.4892186
40
1.2373378
50
147.4065042
51
180.1338866
0
ARC
8
0
10
10.5386405
20
33.4897046
40
1.2366845
50
96.4510911
51
147.4138807
0
ARC
8
0
10
10.5417199
20
33.4623087
40
1.2642529
50
89.9870721
51
96.4502643
0
ARC
8
0
10
10.544896
20
33.4892262
40
1.2373387
50
57.4065306
51
90.1338625
0
ARC
8
0
10
10.545383
20
33.489692
40
1.236684
50
6.4510914
51
57.4139155
0
ARC
8
0
10
10.5179815
20
33.4866125
40
1.2642581
50
359.987072
51
6.450246
0
ARC
8
0
10
10.5449063
20
33.4834364
40
1.2373366
50
327.4064861
51
0.1338596
0
ARC
8
0
10
10.5453679
20
33.4829514
40
1.2366863
50
276.4511647
51
327.4138983
0
ARC
8
0
10
10.5422904
20
33.5103457
40
1.2642529
50
269.9870721
51
276.4502643
0
LINE
8
DEFAULT_255_2_778
10
10.5420051
20
32.2460929
11
10.5420051
21
32.2460929
0
ARC
8
0
10
13.381223
20
42.0998576
40
6.3225109
50
108.6831152
51
116.6837069
0
ARC
8
0
10
13.076113
20
43.0140412
40
5.3587646
50
96.7141015
51
108.7238704
0
ARC
8
0
10
13.0231883
20
43.3792886
40
4.9898442
50
90.0082039
51
96.6008979
0
ARC
8
0
10
13.0125513
20
43.241245
40
5.1278973
50
74.3209346
51
89.889132
0
ARC
8
0
10
12.7860025
20
42.4111229
40
5.9883588
50
65.5842943
51
74.3804503
0
ARC
8
0
10
12.4889943
20
41.7239538
40
6.7368578
50
63.424167
51
65.6999364
0
ARC
8
0
10
13.381223
20
54.502201
40
6.3225109
50
108.6831152
51
116.6837069
0
ARC
8
0
10
13.076113
20
55.4163846
40
5.3587646
50
96.7141015
51
108.7238704
0
ARC
8
0
10
13.0231883
20
55.781632
40
4.9898442
50
90.0082039
51
96.6008979
0
ARC
8
0
10
13.0125513
20
55.6435884
40
5.1278973
50
74.3209346
51
89.889132
0
ARC
8
0
10
12.7860025
20
54.8134663
40
5.9883588
50
65.5842943
51
74.3804503
0
ARC
8
0
10
12.4889943
20
54.1262972
40
6.7368578
50
63.424167
51
65.6999364
0
ARC
8
0
10
57.7298231
20
45.9449814
40
1.2978829
50
231.0982984
51
267.3983581
0
ARC
8
0
10
57.7298336
20
45.9483483
40
1.3005114
50
185.9980714
51
231.1910895
0
ARC
8
0
10
57.747398
20
45.9499567
40
1.3181478
50
182.6648746
51
185.9878179
0
ARC
8
0
10
57.7272411
20
45.8297487
40
1.2979035
50
141.0985122
51
177.3980084
0
ARC
8
0
10
57.7305803
20
45.8297635
40
1.3004946
50
95.9978248
51
141.1914042
0
ARC
8
0
10
57.7321881
20
45.812193
40
1.3181371
50
92.6645492
51
95.9875268
0
ARC
8
0
10
57.6119971
20
45.8323598
40
1.2978829
50
51.0982984
51
87.3983581
0
ARC
8
0
10
57.6119865
20
45.8289929
40
1.3005114
50
5.9980714
51
51.1910895
0
ARC
8
0
10
57.5944221
20
45.8273845
40
1.3181478
50
2.6648746
51
5.9878179
0
ARC
8
0
10
55.2467724
20
45.9475924
40
1.2979035
50
182.6019916
51
218.9014878
0
ARC
8
0
10
55.2501116
20
45.9475777
40
1.3004946
50
218.8085958
51
264.0021752
0
ARC
8
0
10
55.2517195
20
45.9651482
40
1.3181371
50
264.0124732
51
267.3354508
0
ARC
8
0
10
55.1315284
20
45.9449814
40
1.2978829
50
272.6016419
51
308.9017016
0
ARC
8
0
10
55.1315178
20
45.9483483
40
1.3005114
50
308.8089105
51
354.0019286
0
ARC
8
0
10
55.1139534
20
45.9499567
40
1.3181478
50
354.0121821
51
357.3351254
0
ARC
8
0
10
55.1341103
20
45.8297487
40
1.2979035
50
2.6019916
51
38.9014878
0
ARC
8
0
10
55.1307711
20
45.8297635
40
1.3004946
50
38.8085958
51
84.0021752
0
ARC
8
0
10
55.1291633
20
45.812193
40
1.3181371
50
84.0124732
51
87.3354508
0
ARC
8
0
10
57.7298304
20
33.542653
40
1.2978982
50
231.0984336
51
267.3980658
0
ARC
8
0
10
57.7298276
20
33.5460029
40
1.3005051
50
185.9980179
51
231.1912114
0
ARC
8
0
10
57.747387
20
33.5476121
40
1.3181367
50
182.6648471
51
185.9878268
0
ARC
8
0
10
57.7272361
20
33.4274059
40
1.2978985
50
141.0984364
51
177.3980237
0
ARC
8
0
10
57.7305866
20
33.4274098
40
1.3005052
50
95.9980572
51
141.1912697
0
ARC
8
0
10
57.732195
20
33.4098502
40
1.3181368
50
92.6648471
51
95.9878268
0
ARC
8
0
10
57.6119894
20
33.4300026
40
1.297897
50
51.0983714
51
87.3980482
0
ARC
8
0
10
57.611991
20
33.4266498
40
1.3005069
50
5.9980746
51
51.1911855
0
ARC
8
0
10
57.5944438
20
33.4250425
40
1.3181261
50
2.664861
51
5.9878583
0
ARC
8
0
10
55.2467672
20
33.5452475
40
1.2978982
50
182.6019342
51
218.9015664
0
ARC
8
0
10
55.2501171
20
33.5452447
40
1.3005051
50
218.8087886
51
264.0019821
0
ARC
8
0
10
55.2517263
20
33.5628041
40
1.3181367
50
264.0121732
51
267.3351529
0
ARC
8
0
10
55.1315211
20
33.542653
40
1.2978982
50
272.6019342
51
308.9015664
0
ARC
8
0
10
55.1315239
20
33.5460029
40
1.3005051
50
308.8087886
51
354.0019821
0
ARC
8
0
10
55.1139644
20
33.5476121
40
1.3181367
50
354.0121732
51
357.3351529
0
ARC
8
0
10
55.1341153
20
33.4274059
40
1.2978985
50
2.6019763
51
38.9015636
0
ARC
8
0
10
55.1307648
20
33.4274098
40
1.3005052
50
38.8087303
51
84.0019428
0
ARC
8
0
10
55.1291565
20
33.4098502
40
1.3181368
50
84.0121732
51
87.3351529
0
ARC
8
0
10
57.729825
20
58.3473284
40
1.2978866
50
231.0983277
51
267.3982791
0
ARC
8
0
10
57.7298315
20
58.3506908
40
1.3005092
50
185.998042
51
231.1911317
0
ARC
8
0
10
57.7473854
20
58.3522988
40
1.3181351
50
182.6648472
51
185.987827
0
ARC
8
0
10
57.7272408
20
58.2320927
40
1.2979032
50
141.0985109
51
177.3980298
0
ARC
8
0
10
57.7305805
20
58.2321062
40
1.3004954
50
95.9978313
51
141.1913755
0
ARC
8
0
10
57.7321881
20
58.2145363
40
1.3181371
50
92.6645492
51
95.9875268
0
ARC
8
0
10
57.6119957
20
58.2346998
40
1.2978863
50
51.0983497
51
87.3983069
0
ARC
8
0
10
57.6119884
20
58.2313372
40
1.3005095
50
5.9980417
51
51.191131
0
ARC
8
0
10
57.5944347
20
58.2297292
40
1.3181352
50
2.6648472
51
5.987827
0
ARC
8
0
10
55.2467709
20
58.3499351
40
1.297902
50
182.6019626
51
218.9015095
0
ARC
8
0
10
55.2501127
20
58.349923
40
1.3004967
50
218.8086365
51
264.002138
0
ARC
8
0
10
55.2517195
20
58.3674918
40
1.3181372
50
264.0124732
51
267.3354508
0
ARC
8
0
10
55.1315264
20
58.3473284
40
1.2978866
50
272.6017209
51
308.9016723
0
ARC
8
0
10
55.1315199
20
58.3506908
40
1.3005092
50
308.8088683
51
354.001958
0
ARC
8
0
10
55.1139661
20
58.3522988
40
1.3181351
50
354.012173
51
357.3351528
0
ARC
8
0
10
55.1341107
20
58.2320927
40
1.2979032
50
2.6019702
51
38.9014891
0
ARC
8
0
10
55.1307709
20
58.2321062
40
1.3004954
50
38.8086245
51
84.0021687
0
ARC
8
0
10
55.1291633
20
58.2145363
40
1.3181371
50
84.0124732
51
87.3354508
0
ENDSEC
0
EOF