0
SECTION
2
HEADER
0
ENDSEC
0
SECTION
2
TABLES
0
TABLE
2
LTYPE
0
LTYPE
72
65
70
64
2
CONTINUOUS
3
______
73
0
40
0
0
ENDTAB
0
TABLE
2
LAYER
0
LAYER
2
DEFAULT_255_2_778
70
0
62
255
6
CONTINUOUS
0
ENDTAB
0
ENDSEC
0
SECTION
2
ENTITIES
0
ARC
8
0
10
71.3210162
20
43.7218599
40
2.4879997
50
159.6501498
51
180.0830425
0
ARC
8
0
10
71.307885
20
43.7234453
40
2.4751385
50
100.6656993
51
159.5788545
0
ARC
8
0
10
71.312129
20
43.6859559
40
2.5127671
50
89.9690172
51
100.6025886
0
ARC
8
0
10
71.3170938
20
43.7107306
40
2.4879946
50
69.6501667
51
90.0830417
0
ARC
8
0
10
71.3186803
20
43.7238573
40
2.4751374
50
10.6657287
51
69.5789311
0
ARC
8
0
10
71.2811732
20
43.7196129
40
2.5127836
50
359.9690131
51
10.6025521
0
ARC
8
0
10
71.3059594
20
43.7146479
40
2.4879997
50
339.6501498
51
0.0830425
0
ARC
8
0
10
71.3190906
20
43.7130624
40
2.4751385
50
280.6656993
51
339.5788545
0
ARC
8
0
10
71.3148466
20
43.7505518
40
2.5127671
50
269.9690172
51
280.6025886
0
ARC
8
0
10
71.3098818
20
43.7257772
40
2.4879946
50
249.6501667
51
270.0830417
0
ARC
8
0
10
71.3082953
20
43.7126505
40
2.4751374
50
190.6657287
51
249.5789311
0
ARC
8
0
10
71.3458024
20
43.7168949
40
2.5127836
50
179.9690131
51
190.6025521
0
LINE
8
DEFAULT_255_2_778
10
68.8330191
20
43.7182539
11
68.8330191
21
43.7182539
0
ARC
8
0
10
4.3316493
20
43.7273688
40
1.2310709
50
147.0594889
51
180.134839
0
ARC
8
0
10
4.3312464
20
43.7278752
40
1.2304574
50
96.4106222
51
147.0690809
0
ARC
8
0
10
4.3343323
20
43.7004834
40
1.2580225
50
89.9872431
51
96.4109972
0
ARC
8
0
10
4.3375101
20
43.7274336
40
1.2310756
50
57.0596299
51
90.1348612
0
ARC
8
0
10
4.3380184
20
43.7278403
40
1.2304577
50
6.4105561
51
57.0691954
0
ARC
8
0
10
4.3106006
20
43.7247517
40
1.2580491
50
359.9872428
51
6.4109233
0
ARC
8
0
10
4.3375891
20
43.7215752
40
1.231064
50
327.0593608
51
0.1348027
0
ARC
8
0
10
4.3379787
20
43.7210762
40
1.2304657
50
276.4106248
51
327.0689938
0
ARC
8
0
10
4.3348925
20
43.7484816
40
1.2580443
50
269.987243
51
276.410942
0
ARC
8
0
10
4.3317163
20
43.7214916
40
1.2310576
50
237.0592681
51
270.134793
0
ARC
8
0
10
4.3312206
20
43.7211078
40
1.2304659
50
186.4107019
51
237.0689205
0
ARC
8
0
10
4.3586119
20
43.7241915
40
1.2580302
50
179.9872432
51
186.4109789
0
LINE
8
DEFAULT_255_2_778
10
3.1005818
20
43.7244716
11
3.1005818
21
43.7244716
0
ARC
8
0
10
10.5328213
20
43.7273688
40
1.2310709
50
147.0594887
51
180.1348389
0
ARC
8
0
10
10.5324185
20
43.7278751
40
1.2304576
50
96.410646
51
147.0690777
0
ARC
8
0
10
10.5355038
20
43.7004847
40
1.2580212
50
89.9872431
51
96.4109973
0
ARC
8
0
10
10.5386818
20
43.7274324
40
1.2310767
50
57.059649
51
90.1348713
0
ARC
8
0
10
10.5391903
20
43.7278409
40
1.2304573
50
6.4105329
51
57.0691815
0
ARC
8
0
10
10.511772
20
43.7247517
40
1.2580491
50
359.9872428
51
6.4109233
0
ARC
8
0
10
10.5387585
20
43.7215755
40
1.231066
50
327.059406
51
0.1347887
0
ARC
8
0
10
10.5391509
20
43.7210754
40
1.2304648
50
276.4106019
51
327.0690151
0
ARC
8
0
10
10.536064
20
43.7484869
40
1.2580495
50
269.987243
51
276.4109235
0
ARC
8
0
10
10.5328879
20
43.7214904
40
1.2310564
50
237.0592502
51
270.1347845
0
ARC
8
0
10
10.5323932
20
43.721108
40
1.2304665
50
186.4107094
51
237.068898
0
ARC
8
0
10
10.5597839
20
43.7241915
40
1.2580302
50
179.9872432
51
186.4109789
0
LINE
8
DEFAULT_255_2_778
10
9.3017537
20
43.7244716
11
9.3017537
21
43.7244716
0
LINE
8
DEFAULT_255_2_778
10
3.1005859
20
43.7182671
11
0.6201172
21
43.7182671
0
LINE
8
DEFAULT_255_2_778
10
11.7822262
20
43.7182671
11
19.2236323
21
43.7182671
0
LINE
8
DEFAULT_255_2_778
10
4.3408202
20
40.0037653
11
10.5419919
21
39.9975641
0
LINE
8
DEFAULT_255_2_778
10
8.6816404
20
41.2377852
11
6.2011717
21
38.7573165
0
LINE
8
DEFAULT_255_2_778
10
8.6816404
20
38.7573165
11
6.2011717
21
41.2377852
0
ARC
8
0
10
40.2984459
20
43.7273691
40
1.2310689
50
147.059444
51
180.1348531
0
ARC
8
0
10
40.2980457
20
43.7278748
40
1.2304581
50
96.4106964
51
147.069073
0
ARC
8
0
10
40.3011295
20
43.7004917
40
1.2580142
50
89.9872432
51
96.4110158
0
ARC
8
0
10
40.3043098
20
43.7274353
40
1.2310739
50
57.0596108
51
90.1349799
0
ARC
8
0
10
40.3048159
20
43.7278471
40
1.230453
50
6.4102675
51
57.0689634
0
ARC
8
0
10
40.2773938
20
43.7247517
40
1.2580491
50
359.9872426
51
6.410923
0
ARC
8
0
10
40.3043711
20
43.7215735
40
1.231075
50
327.0597824
51
0.1348807
0
ARC
8
0
10
40.3047827
20
43.721063
40
1.2304519
50
276.4104345
51
327.069311
0
ARC
8
0
10
40.3016898
20
43.7485016
40
1.2580642
50
269.9872352
51
276.410888
0
ARC
8
0
10
40.298514
20
43.7214877
40
1.2310537
50
237.0592126
51
270.1347655
0
ARC
8
0
10
40.2980209
20
43.7211087
40
1.2304675
50
186.4107382
51
237.0688872
0
ARC
8
0
10
40.3254106
20
43.7241915
40
1.2580302
50
179.9872432
51
186.4109789
0
LINE
8
DEFAULT_255_2_778
10
39.0673804
20
43.7244716
11
39.0673804
21
43.7244716
0
ARC
8
0
10
45.2593833
20
43.7273691
40
1.2310689
50
147.059444
51
180.1348531
0
ARC
8
0
10
45.2589831
20
43.7278748
40
1.2304581
50
96.4106964
51
147.069073
0
ARC
8
0
10
45.2620668
20
43.7004917
40
1.2580142
50
89.9872432
51
96.4110158
0
ARC
8
0
10
45.2652471
20
43.7274353
40
1.2310739
50
57.0596108
51
90.1349799
0
ARC
8
0
10
45.2657533
20
43.7278471
40
1.230453
50
6.4102675
51
57.0689634
0
ARC
8
0
10
45.2383312
20
43.7247517
40
1.2580491
50
359.9872426
51
6.410923
0
ARC
8
0
10
45.2653085
20
43.7215735
40
1.231075
50
327.0597824
51
0.1348807
0
ARC
8
0
10
45.26572
20
43.721063
40
1.2304519
50
276.4104345
51
327.069311
0
ARC
8
0
10
45.2626272
20
43.7485016
40
1.2580642
50
269.9872352
51
276.410888
0
ARC
8
0
10
45.2594514
20
43.7214877
40
1.2310537
50
237.0592126
51
270.1347655
0
ARC
8
0
10
45.2589582
20
43.7211087
40
1.2304675
50
186.4107382
51
237.0688872
0
ARC
8
0
10
45.2863479
20
43.7241915
40
1.2580302
50
179.9872432
51
186.4109789
0
LINE
8
DEFAULT_255_2_778
10
44.0283178
20
43.7244716
11
44.0283178
21
43.7244716
0
LINE
8
DEFAULT_255_2_778
10
40.3076293
20
47.4451526
11
45.2685667
21
47.4389525
0
LINE
8
DEFAULT_255_2_778
10
42.788098
20
49.9194388
11
42.788098
21
47.4389701
0
LINE
8
DEFAULT_255_2_778
10
41.5478636
20
33.7963924
11
41.5478636
21
28.835455
0
LINE
8
DEFAULT_255_2_778
10
44.0283323
20
33.7963924
11
44.0283323
21
28.835455
0
ARC
8
0
10
36.534408
20
43.6706364
40
1.2347761
50
237.059409
51
270.134885
0
ARC
8
0
10
36.5339064
20
43.6702379
40
1.234169
50
186.4104591
51
237.0688917
0
ARC
8
0
10
36.5614427
20
43.6733389
40
1.2618793
50
179.9873205
51
186.4107842
0
ARC
8
0
10
36.5343479
20
43.6765243
40
1.2347879
50
147.0597043
51
180.1348473
0
ARC
8
0
10
36.5339352
20
43.677037
40
1.2341628
50
96.4105396
51
147.069262
0
ARC
8
0
10
36.5370337
20
43.6495517
40
1.2618221
50
89.9872315
51
96.4110105
0
ARC
8
0
10
36.5402202
20
43.6765979
40
1.2347792
50
57.0594448
51
90.1348107
0
ARC
8
0
10
36.5407245
20
43.6769943
40
1.2341723
50
6.4106423
51
57.0690863
0
ARC
8
0
10
36.5132548
20
43.6738994
40
1.2618157
50
359.9872321
51
6.4110294
0
ARC
8
0
10
36.5402965
20
43.670713
40
1.2347772
50
327.0593722
51
0.1348042
0
ARC
8
0
10
36.5406899
20
43.6702119
40
1.2341747
50
276.4106647
51
327.0689668
0
ARC
8
0
10
36.5375959
20
43.6976778
40
1.2618142
50
269.9872391
51
276.4110274
0
LINE
8
DEFAULT_255_2_778
10
36.5373149
20
42.4358637
11
36.5373149
21
42.4358637
0
LINE
8
DEFAULT_255_2_778
10
46.5087878
20
43.7182539
11
52.7099595
21
43.7182539
0
ARC
8
0
10
48.9367567
20
43.6706435
40
1.2347832
50
237.0595003
51
270.13492
0
ARC
8
0
10
48.9362506
20
43.6702379
40
1.2341677
50
186.4104644
51
237.0689802
0
ARC
8
0
10
48.9637882
20
43.6733389
40
1.2618793
50
179.9873205
51
186.4107842
0
ARC
8
0
10
48.9366912
20
43.6765246
40
1.2347858
50
147.0596592
51
180.1348615
0
ARC
8
0
10
48.936282
20
43.6770345
40
1.2341652
50
96.4104398
51
147.0691926
0
ARC
8
0
10
48.9393831
20
43.6495375
40
1.2618363
50
89.9872315
51
96.4109737
0
ARC
8
0
10
48.9425694
20
43.6766114
40
1.2347657
50
57.0592609
51
90.1348024
0
ARC
8
0
10
48.9430645
20
43.6769962
40
1.2341735
50
6.4105469
51
57.0688324
0
ARC
8
0
10
48.9155962
20
43.6738994
40
1.2618157
50
359.987232
51
6.4110293
0
ARC
8
0
10
48.9426323
20
43.6707125
40
1.2347828
50
327.0595685
51
0.1348272
0
ARC
8
0
10
48.9430379
20
43.6702021
40
1.234165
50
276.4107462
51
327.0692181
0
ARC
8
0
10
48.9399455
20
43.6976577
40
1.2617942
50
269.987232
51
276.4110843
0
LINE
8
DEFAULT_255_2_778
10
48.9396643
20
42.4358637
11
48.9396643
21
42.4358637
0
LINE
8
DEFAULT_255_2_778
10
50.2294908
20
43.7182539
11
56.4306625
21
43.7182539
0
LINE
8
DEFAULT_255_2_778
10
73.7939433
20
43.7182539
11
78.7548806
21
43.7182539
0
ARC
8
0
10
71.321023
20
31.3195169
40
2.4880065
50
159.6501781
51
180.0830519
0
ARC
8
0
10
71.3078813
20
31.3211058
40
2.4751342
50
100.6656298
51
159.5788723
0
ARC
8
0
10
71.3121301
20
31.2835894
40
2.5127901
50
89.9690419
51
100.6025151
0
ARC
8
0
10
71.3170927
20
31.3083753
40
2.4880065
50
69.6502426
51
90.0830167
0
ARC
8
0
10
71.3186845
20
31.3215176
40
2.4751329
50
10.6656868
51
69.5789951
0
ARC
8
0
10
71.281164
20
31.3172696
40
2.5127927
50
359.9690091
51
10.602534
0
ARC
8
0
10
71.3059526
20
31.312304
40
2.4880065
50
339.6501781
51
0.0830519
0
ARC
8
0
10
71.3190944
20
31.3107152
40
2.4751342
50
280.6656298
51
339.5788723
0
ARC
8
0
10
71.3148455
20
31.3482315
40
2.5127901
50
269.9690419
51
280.6025151
0
ARC
8
0
10
71.3098829
20
31.3234457
40
2.4880065
50
249.6502426
51
270.0830167
0
ARC
8
0
10
71.3082911
20
31.3103034
40
2.4751329
50
190.6656868
51
249.5789951
0
ARC
8
0
10
71.3458116
20
31.3145513
40
2.5127927
50
179.9690091
51
190.602534
0
LINE
8
DEFAULT_255_2_778
10
68.8330191
20
31.3159105
11
68.8330191
21
31.3159105
0
LINE
8
DEFAULT_255_2_778
10
68.2128821
20
34.4165162
11
69.4531165
21
33.1762818
0
LINE
8
DEFAULT_255_2_778
10
74.4140538
20
34.4165162
11
73.1738195
21
33.1762818
0
LINE
8
DEFAULT_255_2_778
10
74.4140538
20
28.2153445
11
73.1738195
21
29.4555788
0
LINE
8
DEFAULT_255_2_778
10
68.2128821
20
28.2153445
11
69.4531165
21
29.4555788
0
LINE
8
DEFAULT_255_2_778
10
63.8720619
20
43.7182737
11
63.8720619
21
31.3159303
0
LINE
8
DEFAULT_255_2_778
10
63.8720619
20
31.3159303
11
68.8329993
21
31.3159303
0
ARC
8
0
10
71.321019
20
-5.8875135
40
2.4880025
50
159.6501593
51
180.0830472
0
ARC
8
0
10
71.3078832
20
-5.8859266
40
2.4751365
50
100.6656659
51
159.5788598
0
ARC
8
0
10
71.3121301
20
-5.9234408
40
2.5127901
50
89.9690419
51
100.6025152
0
ARC
8
0
10
71.3170933
20
-5.898649
40
2.4880006
50
69.6502047
51
90.0830292
0
ARC
8
0
10
71.3186824
20
-5.8855145
40
2.4751351
50
10.6657078
51
69.5789631
0
ARC
8
0
10
71.2811681
20
-5.8897607
40
2.5127887
50
359.9690128
51
10.6025425
0
ARC
8
0
10
71.3059566
20
-5.894726
40
2.4880025
50
339.6501593
51
0.0830472
0
ARC
8
0
10
71.3190924
20
-5.8963129
40
2.4751365
50
280.6656659
51
339.5788598
0
ARC
8
0
10
71.3148455
20
-5.8587986
40
2.5127901
50
269.9690419
51
280.6025152
0
ARC
8
0
10
71.3098824
20
-5.8835905
40
2.4880006
50
249.6502047
51
270.0830292
0
ARC
8
0
10
71.3082932
20
-5.896725
40
2.4751351
50
190.6657078
51
249.5789631
0
ARC
8
0
10
71.3458075
20
-5.8924787
40
2.5127887
50
179.9690128
51
190.6025425
0
LINE
8
DEFAULT_255_2_778
10
68.8330191
20
-5.8911197
11
68.8330191
21
-5.8911197
0
LINE
8
DEFAULT_255_2_778
10
68.2128953
20
-2.7905273
11
69.4531297
21
-4.0307616
0
LINE
8
DEFAULT_255_2_778
10
74.414067
20
-2.7905273
11
73.1738327
21
-4.0307616
0
LINE
8
DEFAULT_255_2_778
10
74.414067
20
-8.991699
11
73.1738327
21
-7.7514646
0
LINE
8
DEFAULT_255_2_778
10
68.2128953
20
-8.991699
11
69.4531297
21
-7.7514646
0
LINE
8
DEFAULT_255_2_778
10
73.7939499
20
-5.8911131
11
78.7548872
21
-5.8911131
0
LINE
8
DEFAULT_255_2_778
10
78.7548872
20
-5.8911131
11
78.7548872
21
52.3999009
0
LINE
8
DEFAULT_255_2_778
10
73.7939565
20
31.3159105
11
78.7548939
21
31.3159105
0
ARC
8
0
10
4.3316402
20
-5.8820027
40
1.2310618
50
147.0593583
51
180.1348469
0
ARC
8
0
10
4.3312445
20
-5.8815018
40
1.2304575
50
96.4105328
51
147.0689141
0
ARC
8
0
10
4.3343323
20
-5.9088932
40
1.2580225
50
89.987243
51
96.4109971
0
ARC
8
0
10
4.3375102
20
-5.8819467
40
1.2310793
50
57.0597522
51
90.1348667
0
ARC
8
0
10
4.3380254
20
-5.8815316
40
1.2304509
50
6.410588
51
57.0693732
0
ARC
8
0
10
4.3106134
20
-5.8846197
40
1.2580363
50
359.9872357
51
6.410962
0
ARC
8
0
10
4.3375873
20
-5.8877986
40
1.2310657
50
327.0593797
51
0.1349035
0
ARC
8
0
10
4.3379843
20
-5.8882988
40
1.2304607
50
276.4103889
51
327.0688775
0
ARC
8
0
10
4.3348925
20
-5.8608891
40
1.2580443
50
269.9872429
51
276.4109418
0
ARC
8
0
10
4.3317153
20
-5.8878717
40
1.2310648
50
237.0595402
51
270.1348352
0
ARC
8
0
10
4.3312122
20
-5.88827
40
1.2304571
50
186.4105172
51
237.0691174
0
ARC
8
0
10
4.3586322
20
-5.8851803
40
1.2580505
50
179.9872356
51
186.4109251
0
LINE
8
DEFAULT_255_2_778
10
3.1005818
20
-5.8849
11
3.1005818
21
-5.8849
0
ARC
8
0
10
10.5328122
20
-5.8820027
40
1.2310618
50
147.0593581
51
180.1348467
0
ARC
8
0
10
10.5324167
20
-5.881502
40
1.2304577
50
96.4105566
51
147.0689109
0
ARC
8
0
10
10.5355038
20
-5.9088919
40
1.2580212
50
89.9872431
51
96.4109972
0
ARC
8
0
10
10.5386819
20
-5.8819478
40
1.2310804
50
57.0597714
51
90.1348768
0
ARC
8
0
10
10.5391973
20
-5.8815311
40
1.2304504
50
6.4105648
51
57.0693593
0
ARC
8
0
10
10.5117849
20
-5.8846197
40
1.2580363
50
359.9872356
51
6.410962
0
ARC
8
0
10
10.5387568
20
-5.8877983
40
1.2310677
50
327.0594249
51
0.1348896
0
ARC
8
0
10
10.5391565
20
-5.8882997
40
1.2304598
50
276.410366
51
327.0688988
0
ARC
8
0
10
10.536064
20
-5.8608838
40
1.2580495
50
269.9872429
51
276.4109234
0
ARC
8
0
10
10.532887
20
-5.8878729
40
1.2310637
50
237.0595223
51
270.1348266
0
ARC
8
0
10
10.5323849
20
-5.8882698
40
1.2304577
50
186.4105247
51
237.069095
0
ARC
8
0
10
10.5598042
20
-5.8851803
40
1.2580505
50
179.9872356
51
186.4109251
0
LINE
8
DEFAULT_255_2_778
10
9.3017537
20
-5.8849
11
9.3017537
21
-5.8849
0
LINE
8
DEFAULT_255_2_778
10
4.3408202
20
-2.164192
11
10.5419919
21
-2.1703972
0
LINE
8
DEFAULT_255_2_778
10
8.6816404
20
-0.9301824
11
6.2011717
21
-3.4106511
0
LINE
8
DEFAULT_255_2_778
10
8.6816404
20
-3.4106378
11
6.2011717
21
-0.9301691
0
LINE
8
DEFAULT_255_2_778
10
0.6201172
20
52.3999075
11
0.6201172
21
-5.8911065
0
LINE
8
DEFAULT_255_2_778
10
0.6201172
20
-5.8911065
11
3.1005859
21
-5.8911065
0
LINE
8
DEFAULT_255_2_778
10
11.7822262
20
-5.8911065
11
68.8330059
21
-5.8911065
0
ARC
8
0
10
66.3000366
20
31.2683041
40
1.2347868
50
237.059651
51
270.134957
0
ARC
8
0
10
66.2995254
20
31.2678903
40
1.2341615
50
186.4104263
51
237.0691247
0
ARC
8
0
10
66.3270684
20
31.2709928
40
1.2618788
50
179.9873133
51
186.410786
0
ARC
8
0
10
66.299975
20
31.2741783
40
1.2347888
50
147.0596977
51
180.1348449
0
ARC
8
0
10
66.2995635
20
31.2746906
40
1.234165
50
96.4104748
51
147.0692695
0
ARC
8
0
10
66.3026639
20
31.2471936
40
1.2618363
50
89.9872315
51
96.4109738
0
ARC
8
0
10
66.3058498
20
31.2742692
40
1.2347639
50
57.0591853
51
90.1347838
0
ARC
8
0
10
66.3063421
20
31.27465
40
1.2341767
50
6.4105474
51
57.0687536
0
ARC
8
0
10
66.2788714
20
31.2715533
40
1.2618213
50
359.987239
51
6.411009
0
ARC
8
0
10
66.3059172
20
31.2683658
40
1.2347787
50
327.059512
51
0.1348624
0
ARC
8
0
10
66.3063217
20
31.2678575
40
1.2341629
50
276.4106149
51
327.0691085
0
ARC
8
0
10
66.3032263
20
31.2953148
40
1.2617942
50
269.9872319
51
276.4110843
0
LINE
8
DEFAULT_255_2_778
10
66.3029451
20
30.0335208
11
66.3029451
21
30.0335208
0
ARC
8
0
10
66.3000375
20
-5.9387345
40
1.2347793
50
237.05938
51
270.1349158
0
ARC
8
0
10
66.2995365
20
-5.9391328
40
1.2341728
50
186.4103924
51
237.0688486
0
ARC
8
0
10
66.3270763
20
-5.9360303
40
1.2618867
50
179.9873138
51
186.4107681
0
ARC
8
0
10
66.2999654
20
-5.9328447
40
1.2347792
50
147.0595683
51
180.134854
0
ARC
8
0
10
66.2995619
20
-5.9323397
40
1.2341661
50
96.4103959
51
147.069055
0
ARC
8
0
10
66.3026639
20
-5.9598356
40
1.2618363
50
89.9872314
51
96.4109737
0
ARC
8
0
10
66.3058503
20
-5.9327656
40
1.2347696
50
57.0593807
51
90.1348063
0
ARC
8
0
10
66.3063498
20
-5.9323737
40
1.234169
50
6.4105915
51
57.0689475
0
ARC
8
0
10
66.2788843
20
-5.9354697
40
1.2618084
50
359.9872319
51
6.4110475
0
ARC
8
0
10
66.3059049
20
-5.9386569
40
1.234791
50
327.0596777
51
0.1348435
0
ARC
8
0
10
66.306318
20
-5.9391736
40
1.2341635
50
276.4107844
51
327.0693803
0
ARC
8
0
10
66.3032263
20
-5.9117164
40
1.2617942
50
269.987232
51
276.4110844
0
LINE
8
DEFAULT_255_2_778
10
66.3029451
20
-7.1735104
11
66.3029451
21
-7.1735104
0
ARC
8
0
10
76.2218941
20
31.2683162
40
1.2347989
50
237.0598185
51
270.1349039
0
ARC
8
0
10
76.2213747
20
31.2678951
40
1.234163
50
186.410642
51
237.0694243
0
ARC
8
0
10
76.248853
20
31.2709911
40
1.2618152
50
179.9872317
51
186.4110291
0
ARC
8
0
10
76.2218141
20
31.2741777
40
1.2347796
50
147.05938
51
180.1348164
0
ARC
8
0
10
76.2214216
20
31.2746771
40
1.2341787
50
96.4104942
51
147.0689299
0
ARC
8
0
10
76.2245203
20
31.2471926
40
1.2618373
50
89.9872321
51
96.4109744
0
ARC
8
0
10
76.2277059
20
31.2742827
40
1.2347505
50
57.0590014
51
90.1347755
0
ARC
8
0
10
76.2281896
20
31.2746525
40
1.2341771
50
6.4104242
51
57.0685094
0
ARC
8
0
10
76.2006559
20
31.2715515
40
1.2618849
50
359.9873207
51
6.410766
0
ARC
8
0
10
76.2277577
20
31.2683656
40
1.2347865
50
327.0597515
51
0.1348703
0
ARC
8
0
10
76.2281765
20
31.2678477
40
1.2341533
50
276.4106964
51
327.0693598
0
ARC
8
0
10
76.2250825
20
31.2953018
40
1.2617812
50
269.9872384
51
276.4111185
0
LINE
8
DEFAULT_255_2_778
10
76.2248014
20
30.0335208
11
76.2248014
21
30.0335208
0
ARC
8
0
10
76.221895
20
-5.9387224
40
1.2347914
50
237.0595476
51
270.1348627
0
ARC
8
0
10
76.2213858
20
-5.939128
40
1.2341743
50
186.4106082
51
237.0691482
0
ARC
8
0
10
76.2488608
20
-5.9360321
40
1.2618231
50
179.9872322
51
186.4110112
0
ARC
8
0
10
76.2218045
20
-5.9328453
40
1.23477
50
147.0592506
51
180.1348255
0
ARC
8
0
10
76.2214201
20
-5.9323533
40
1.2341798
50
96.4104153
51
147.0687154
0
ARC
8
0
10
76.2245203
20
-5.9598366
40
1.2618373
50
89.9872321
51
96.4109743
0
ARC
8
0
10
76.2277064
20
-5.9327522
40
1.2347562
50
57.0591968
51
90.134798
0
ARC
8
0
10
76.2281973
20
-5.9323711
40
1.2341693
50
6.4104683
51
57.0687034
0
ARC
8
0
10
76.2006688
20
-5.9354715
40
1.261872
50
359.9873135
51
6.4108045
0
ARC
8
0
10
76.2277454
20
-5.9386571
40
1.2347988
50
327.0599172
51
0.1348514
0
ARC
8
0
10
76.2281728
20
-5.9391834
40
1.2341539
50
276.4108659
51
327.0696317
0
ARC
8
0
10
76.2250825
20
-5.9117293
40
1.2617812
50
269.9872385
51
276.4111186
0
LINE
8
DEFAULT_255_2_778
10
76.2248014
20
-7.1735104
11
76.2248014
21
-7.1735104
0
ARC
8
0
10
20.4546933
20
43.7273691
40
1.2310687
50
147.0594438
51
180.1348537
0
ARC
8
0
10
20.4542947
20
43.7278708
40
1.2304615
50
96.4104579
51
147.0689553
0
ARC
8
0
10
20.4573851
20
43.7004564
40
1.2580495
50
89.9872429
51
96.4109234
0
ARC
8
0
10
20.4605616
20
43.7274459
40
1.2310633
50
57.0594623
51
90.1348053
0
ARC
8
0
10
20.4610618
20
43.7278392
40
1.2304612
50
6.4105931
51
57.0690497
0
ARC
8
0
10
20.4336472
20
43.7247517
40
1.2580491
50
359.9872428
51
6.4109233
0
ARC
8
0
10
20.4606335
20
43.7215755
40
1.2310662
50
327.0594052
51
0.1347876
0
ARC
8
0
10
20.4610268
20
43.7210727
40
1.2304627
50
276.4107952
51
327.0690962
0
ARC
8
0
10
20.4579453
20
43.7484587
40
1.2580213
50
269.9872433
51
276.4109974
0
ARC
8
0
10
20.4547678
20
43.7215051
40
1.2310711
50
237.059454
51
270.1348489
0
ARC
8
0
10
20.4542636
20
43.7211067
40
1.2304625
50
186.4106667
51
237.0690683
0
ARC
8
0
10
20.4816581
20
43.7241915
40
1.2580302
50
179.9872432
51
186.4109789
0
LINE
8
DEFAULT_255_2_778
10
19.223628
20
43.7244716
11
19.223628
21
43.7244716
0
ARC
8
0
10
25.4156307
20
43.7273691
40
1.2310687
50
147.0594438
51
180.1348537
0
ARC
8
0
10
25.4152321
20
43.7278708
40
1.2304615
50
96.4104579
51
147.0689553
0
ARC
8
0
10
25.4183224
20
43.7004564
40
1.2580495
50
89.9872429
51
96.4109234
0
ARC
8
0
10
25.421499
20
43.7274459
40
1.2310633
50
57.0594623
51
90.1348053
0
ARC
8
0
10
25.4219991
20
43.7278392
40
1.2304612
50
6.4105931
51
57.0690497
0
ARC
8
0
10
25.3945846
20
43.7247517
40
1.2580491
50
359.9872428
51
6.4109233
0
ARC
8
0
10
25.4215709
20
43.7215755
40
1.2310662
50
327.0594052
51
0.1347876
0
ARC
8
0
10
25.4219641
20
43.7210727
40
1.2304627
50
276.4107952
51
327.0690962
0
ARC
8
0
10
25.4188826
20
43.7484587
40
1.2580213
50
269.9872433
51
276.4109974
0
ARC
8
0
10
25.4157051
20
43.7215051
40
1.2310711
50
237.059454
51
270.1348489
0
ARC
8
0
10
25.415201
20
43.7211067
40
1.2304625
50
186.4106667
51
237.0690683
0
ARC
8
0
10
25.4425954
20
43.7241915
40
1.2580302
50
179.9872432
51
186.4109789
0
LINE
8
DEFAULT_255_2_778
10
24.1845653
20
43.7244716
11
24.1845653
21
43.7244716
0
LINE
8
DEFAULT_255_2_778
10
20.4638798
20
38.7635127
11
25.4248172
21
38.7573116
0
LINE
8
DEFAULT_255_2_778
10
22.9443485
20
41.2377852
11
22.9443485
21
38.7573165
0
ARC
8
0
10
16.6906576
20
43.6706352
40
1.2347749
50
237.0593908
51
270.1348578
0
ARC
8
0
10
16.6901564
20
43.670239
40
1.2341699
50
186.4105054
51
237.0689194
0
ARC
8
0
10
16.717628
20
43.6733371
40
1.2618157
50
179.9872388
51
186.4110271
0
ARC
8
0
10
16.6905929
20
43.6765249
40
1.2347839
50
147.0596142
51
180.1348751
0
ARC
8
0
10
16.6901858
20
43.6770352
40
1.2341646
50
96.4105852
51
147.0692195
0
ARC
8
0
10
16.6932827
20
43.6495586
40
1.2618152
50
89.9872317
51
96.411029
0
ARC
8
0
10
16.6964691
20
43.6765926
40
1.2347845
50
57.0595195
51
90.1348026
0
ARC
8
0
10
16.6969764
20
43.6769931
40
1.2341725
50
6.4106995
51
57.069178
0
ARC
8
0
10
16.6695068
20
43.6738994
40
1.2618157
50
359.9872321
51
6.4110294
0
ARC
8
0
10
16.6965503
20
43.6707134
40
1.2347755
50
327.0592961
51
0.1347853
0
ARC
8
0
10
16.6969394
20
43.6702156
40
1.2341784
50
276.4106378
51
327.0688715
0
ARC
8
0
10
16.6938449
20
43.6976798
40
1.2618162
50
269.9872392
51
276.4110275
0
LINE
8
DEFAULT_255_2_778
10
16.6935639
20
42.4358637
11
16.6935639
21
42.4358637
0
ARC
8
0
10
29.0930011
20
43.670634
40
1.2347737
50
237.0593726
51
270.1348306
0
ARC
8
0
10
29.0925008
20
43.6702408
40
1.2341718
50
186.4105796
51
237.0689374
0
ARC
8
0
10
29.1199709
20
43.6733371
40
1.2618157
50
179.9872388
51
186.4110271
0
ARC
8
0
10
29.0929362
20
43.6765242
40
1.2347843
50
147.0595828
51
180.1348418
0
ARC
8
0
10
29.0925304
20
43.6770332
40
1.2341668
50
96.4106406
51
147.0691737
0
ARC
8
0
10
29.0956256
20
43.6495654
40
1.2618084
50
89.9872319
51
96.4110476
0
ARC
8
0
10
29.0988122
20
43.676591
40
1.2347861
50
57.0595379
51
90.1348114
0
ARC
8
0
10
29.0993208
20
43.6769933
40
1.2341719
50
6.4106938
51
57.0692025
0
ARC
8
0
10
29.0718507
20
43.6738994
40
1.2618157
50
359.9872321
51
6.4110294
0
ARC
8
0
10
29.0988942
20
43.6707134
40
1.2347756
50
327.0592957
51
0.1347851
0
ARC
8
0
10
29.099283
20
43.6702162
40
1.2341789
50
276.4106104
51
327.068855
0
ARC
8
0
10
29.0961878
20
43.6976851
40
1.2618216
50
269.9872392
51
276.4110092
0
LINE
8
DEFAULT_255_2_778
10
29.0959068
20
42.4358637
11
29.0959068
21
42.4358637
0
LINE
8
DEFAULT_255_2_778
10
26.6650515
20
43.7182539
11
39.067395
21
43.7182539
0
LINE
8
DEFAULT_255_2_778
10
56.4306757
20
46.1987226
11
56.4306757
21
41.2377852
0
LINE
8
DEFAULT_255_2_778
10
58.9111444
20
46.1987226
11
58.9111444
21
41.2377852
0
LINE
8
DEFAULT_255_2_778
10
60.1513787
20
45.5786054
11
55.1904414
21
41.8579024
0
ARC
8
0
10
71.321019
20
18.9171733
40
2.4880025
50
159.6501593
51
180.0830472
0
ARC
8
0
10
71.3078832
20
18.9187603
40
2.4751365
50
100.6656659
51
159.5788598
0
ARC
8
0
10
71.3121301
20
18.881246
40
2.5127901
50
89.9690419
51
100.6025152
0
ARC
8
0
10
71.3170933
20
18.9060378
40
2.4880006
50
69.6502047
51
90.0830292
0
ARC
8
0
10
71.3186824
20
18.9191723
40
2.4751351
50
10.6657078
51
69.5789631
0
ARC
8
0
10
71.2811681
20
18.9149261
40
2.5127887
50
359.9690128
51
10.6025425
0
ARC
8
0
10
71.3059566
20
18.9099608
40
2.4880025
50
339.6501593
51
0.0830472
0
ARC
8
0
10
71.3190924
20
18.9083739
40
2.4751365
50
280.6656659
51
339.5788598
0
ARC
8
0
10
71.3148455
20
18.9458882
40
2.5127901
50
269.9690419
51
280.6025152
0
ARC
8
0
10
71.3098824
20
18.9210964
40
2.4880006
50
249.6502047
51
270.0830292
0
ARC
8
0
10
71.3082932
20
18.9079618
40
2.4751351
50
190.6657078
51
249.5789631
0
ARC
8
0
10
71.3458075
20
18.9122081
40
2.5127887
50
179.9690128
51
190.6025425
0
LINE
8
DEFAULT_255_2_778
10
68.8330191
20
18.9135671
11
68.8330191
21
18.9135671
0
LINE
8
DEFAULT_255_2_778
10
73.7939565
20
18.9135671
11
78.7548939
21
18.9135671
0
ARC
8
0
10
71.321019
20
6.5148299
40
2.4880025
50
159.6501593
51
180.0830472
0
ARC
8
0
10
71.3078832
20
6.5164169
40
2.4751365
50
100.6656659
51
159.5788598
0
ARC
8
0
10
71.3121301
20
6.4789026
40
2.5127901
50
89.9690419
51
100.6025152
0
ARC
8
0
10
71.3170933
20
6.5036944
40
2.4880006
50
69.6502047
51
90.0830292
0
ARC
8
0
10
71.3186824
20
6.5168289
40
2.4751351
50
10.6657078
51
69.5789631
0
ARC
8
0
10
71.2811681
20
6.5125827
40
2.5127887
50
359.9690128
51
10.6025425
0
ARC
8
0
10
71.3059566
20
6.5076174
40
2.4880025
50
339.6501593
51
0.0830472
0
ARC
8
0
10
71.3190924
20
6.5060305
40
2.4751365
50
280.6656659
51
339.5788598
0
ARC
8
0
10
71.3148455
20
6.5435448
40
2.5127901
50
269.9690419
51
280.6025152
0
ARC
8
0
10
71.3098824
20
6.5187529
40
2.4880006
50
249.6502047
51
270.0830292
0
ARC
8
0
10
71.3082932
20
6.5056184
40
2.4751351
50
190.6657078
51
249.5789631
0
ARC
8
0
10
71.3458075
20
6.5098647
40
2.5127887
50
179.9690128
51
190.6025425
0
LINE
8
DEFAULT_255_2_778
10
68.8330191
20
6.5112237
11
68.8330191
21
6.5112237
0
LINE
8
DEFAULT_255_2_778
10
68.212902
20
9.6118029
11
69.4531363
21
8.3715686
0
LINE
8
DEFAULT_255_2_778
10
74.4140737
20
9.6118029
11
73.1738393
21
8.3715686
0
LINE
8
DEFAULT_255_2_778
10
74.4140737
20
3.4106312
11
73.1738393
21
4.6508655
0
LINE
8
DEFAULT_255_2_778
10
68.212902
20
3.4106312
11
69.4531363
21
4.6508655
0
LINE
8
DEFAULT_255_2_778
10
63.8720818
20
18.9135605
11
63.8720818
21
6.5112171
0
LINE
8
DEFAULT_255_2_778
10
63.8720818
20
6.5112171
11
68.8330191
21
6.5112171
0
LINE
8
DEFAULT_255_2_778
10
73.7939565
20
6.5112171
11
78.7548939
21
6.5112171
0
ARC
8
0
10
66.3000375
20
6.4636089
40
1.2347793
50
237.05938
51
270.1349158
0
ARC
8
0
10
66.2995365
20
6.4632106
40
1.2341728
50
186.4103924
51
237.0688486
0
ARC
8
0
10
66.3270763
20
6.4663131
40
1.2618867
50
179.9873138
51
186.4107681
0
ARC
8
0
10
66.2999654
20
6.4694987
40
1.2347792
50
147.0595683
51
180.134854
0
ARC
8
0
10
66.2995619
20
6.4700037
40
1.2341661
50
96.4103959
51
147.069055
0
ARC
8
0
10
66.3026639
20
6.4425078
40
1.2618363
50
89.9872314
51
96.4109737
0
ARC
8
0
10
66.3058503
20
6.4695778
40
1.2347696
50
57.0593807
51
90.1348063
0
ARC
8
0
10
66.3063498
20
6.4699697
40
1.234169
50
6.4105915
51
57.0689475
0
ARC
8
0
10
66.2788843
20
6.4668737
40
1.2618084
50
359.9872319
51
6.4110475
0
ARC
8
0
10
66.3059049
20
6.4636865
40
1.234791
50
327.0596777
51
0.1348435
0
ARC
8
0
10
66.306318
20
6.4631698
40
1.2341635
50
276.4107844
51
327.0693803
0
ARC
8
0
10
66.3032263
20
6.490627
40
1.2617942
50
269.987232
51
276.4110844
0
LINE
8
DEFAULT_255_2_778
10
66.3029451
20
5.228833
11
66.3029451
21
5.228833
0
ARC
8
0
10
76.221895
20
6.463621
40
1.2347914
50
237.0595476
51
270.1348627
0
ARC
8
0
10
76.2213858
20
6.4632154
40
1.2341743
50
186.4106082
51
237.0691482
0
ARC
8
0
10
76.2488608
20
6.4663113
40
1.2618231
50
179.9872322
51
186.4110112
0
ARC
8
0
10
76.2218045
20
6.4694981
40
1.23477
50
147.0592506
51
180.1348255
0
ARC
8
0
10
76.2214201
20
6.4699901
40
1.2341798
50
96.4104153
51
147.0687154
0
ARC
8
0
10
76.2245203
20
6.4425068
40
1.2618373
50
89.9872321
51
96.4109743
0
ARC
8
0
10
76.2277064
20
6.4695912
40
1.2347562
50
57.0591968
51
90.134798
0
ARC
8
0
10
76.2281973
20
6.4699723
40
1.2341693
50
6.4104683
51
57.0687034
0
ARC
8
0
10
76.2006688
20
6.4668719
40
1.261872
50
359.9873135
51
6.4108045
0
ARC
8
0
10
76.2277454
20
6.4636863
40
1.2347988
50
327.0599172
51
0.1348514
0
ARC
8
0
10
76.2281728
20
6.46316
40
1.2341539
50
276.4108659
51
327.0696317
0
ARC
8
0
10
76.2250825
20
6.4906141
40
1.2617812
50
269.9872385
51
276.4111186
0
LINE
8
DEFAULT_255_2_778
10
76.2248014
20
5.228833
11
76.2248014
21
5.228833
0
ARC
8
0
10
40.2984368
20
18.9226844
40
1.2310598
50
147.0593134
51
180.1348609
0
ARC
8
0
10
40.2980439
20
18.9231845
40
1.2304581
50
96.410607
51
147.0689061
0
ARC
8
0
10
40.3011295
20
18.8958019
40
1.2580142
50
89.9872432
51
96.4110157
0
ARC
8
0
10
40.3043099
20
18.9227418
40
1.2310775
50
57.0597332
51
90.1349854
0
ARC
8
0
10
40.3048228
20
18.9231619
40
1.2304461
50
6.4102994
51
57.0691412
0
ARC
8
0
10
40.2774067
20
18.9200671
40
1.2580363
50
359.9872355
51
6.4109618
0
ARC
8
0
10
40.3043694
20
18.9168865
40
1.2310768
50
327.0598013
51
0.1349815
0
ARC
8
0
10
40.3047882
20
18.9163748
40
1.2304469
50
276.4101986
51
327.0691947
0
ARC
8
0
10
40.3016899
20
18.9438177
40
1.2580642
50
269.9872351
51
276.4108878
0
ARC
8
0
10
40.2985131
20
18.9168112
40
1.231061
50
237.0594847
51
270.1348077
0
ARC
8
0
10
40.2980125
20
18.9164177
40
1.2304587
50
186.4105536
51
237.0690842
0
ARC
8
0
10
40.3254309
20
18.9195065
40
1.2580505
50
179.9872356
51
186.4109252
0
LINE
8
DEFAULT_255_2_778
10
39.0673804
20
18.9197868
11
39.0673804
21
18.9197868
0
ARC
8
0
10
45.2593742
20
18.9226844
40
1.2310598
50
147.0593134
51
180.1348609
0
ARC
8
0
10
45.2589812
20
18.9231845
40
1.2304581
50
96.410607
51
147.0689061
0
ARC
8
0
10
45.2620668
20
18.8958019
40
1.2580142
50
89.9872432
51
96.4110157
0
ARC
8
0
10
45.2652473
20
18.9227418
40
1.2310775
50
57.0597332
51
90.1349854
0
ARC
8
0
10
45.2657602
20
18.9231619
40
1.2304461
50
6.4102994
51
57.0691412
0
ARC
8
0
10
45.238344
20
18.9200671
40
1.2580363
50
359.9872355
51
6.4109618
0
ARC
8
0
10
45.2653067
20
18.9168865
40
1.2310768
50
327.0598013
51
0.1349815
0
ARC
8
0
10
45.2657256
20
18.9163748
40
1.2304469
50
276.4101986
51
327.0691947
0
ARC
8
0
10
45.2626272
20
18.9438177
40
1.2580642
50
269.9872351
51
276.4108878
0
ARC
8
0
10
45.2594504
20
18.9168112
40
1.231061
50
237.0594847
51
270.1348077
0
ARC
8
0
10
45.2589499
20
18.9164177
40
1.2304587
50
186.4105536
51
237.0690842
0
ARC
8
0
10
45.2863682
20
18.9195065
40
1.2580505
50
179.9872356
51
186.4109252
0
LINE
8
DEFAULT_255_2_778
10
44.0283178
20
18.9197868
11
44.0283178
21
18.9197868
0
LINE
8
DEFAULT_255_2_778
10
40.3076293
20
22.6404643
11
45.2685667
21
22.6342672
0
LINE
8
DEFAULT_255_2_778
10
42.788098
20
25.114752
11
42.788098
21
22.6342833
0
LINE
8
DEFAULT_255_2_778
10
41.5478636
20
8.9917056
11
41.5478636
21
4.0307682
0
LINE
8
DEFAULT_255_2_778
10
44.0283323
20
8.9917056
11
44.0283323
21
4.0307682
0
ARC
8
0
10
36.5344081
20
18.8659452
40
1.2347723
50
237.0592888
51
270.1348808
0
ARC
8
0
10
36.5339115
20
18.8655541
40
1.234174
50
186.4103872
51
237.0687601
0
ARC
8
0
10
36.5614501
20
18.8686565
40
1.2618867
50
179.9873138
51
186.4107681
0
ARC
8
0
10
36.5343413
20
18.8718418
40
1.2347813
50
147.0596134
51
180.1348398
0
ARC
8
0
10
36.5339343
20
18.8723496
40
1.2341637
50
96.4104958
51
147.0691243
0
ARC
8
0
10
36.5370337
20
18.8448655
40
1.2618221
50
89.9872315
51
96.4110105
0
ARC
8
0
10
36.5402203
20
18.8719077
40
1.2347831
50
57.0595646
51
90.1348146
0
ARC
8
0
10
36.540729
20
18.8723112
40
1.2341677
50
6.4106869
51
57.0692014
0
ARC
8
0
10
36.5132621
20
18.8692171
40
1.2618084
50
359.9872319
51
6.4110476
0
ARC
8
0
10
36.5402884
20
18.8660304
40
1.2347854
50
327.0594814
51
0.1348205
0
ARC
8
0
10
36.5406893
20
18.865523
40
1.2341732
50
276.4107028
51
327.069129
0
ARC
8
0
10
36.5375959
20
18.8929905
40
1.2618142
50
269.9872391
51
276.4110275
0
LINE
8
DEFAULT_255_2_778
10
36.5373149
20
17.6311764
11
36.5373149
21
17.6311764
0
LINE
8
DEFAULT_255_2_778
10
34.1064576
20
43.7182539
11
34.1064576
21
6.5112237
0
LINE
8
DEFAULT_255_2_778
10
34.1064576
20
6.5112237
11
41.5478636
21
6.5112237
0
ARC
8
0
10
48.9367568
20
18.8659523
40
1.2347793
50
237.05938
51
270.1349158
0
ARC
8
0
10
48.9362557
20
18.865554
40
1.2341728
50
186.4103924
51
237.0688486
0
ARC
8
0
10
48.9637955
20
18.8686565
40
1.2618867
50
179.9873138
51
186.4107681
0
ARC
8
0
10
48.9366847
20
18.8718421
40
1.2347792
50
147.0595683
51
180.134854
0
ARC
8
0
10
48.9362811
20
18.8723471
40
1.2341661
50
96.4103959
51
147.069055
0
ARC
8
0
10
48.9393831
20
18.8448512
40
1.2618363
50
89.9872314
51
96.4109737
0
ARC
8
0
10
48.9425695
20
18.8719212
40
1.2347696
50
57.0593807
51
90.1348063
0
ARC
8
0
10
48.943069
20
18.8723131
40
1.234169
50
6.4105915
51
57.0689475
0
ARC
8
0
10
48.9156036
20
18.8692171
40
1.2618084
50
359.9872319
51
6.4110475
0
ARC
8
0
10
48.9426242
20
18.8660299
40
1.234791
50
327.0596777
51
0.1348435
0
ARC
8
0
10
48.9430372
20
18.8655132
40
1.2341635
50
276.4107844
51
327.0693803
0
ARC
8
0
10
48.9399455
20
18.8929704
40
1.2617942
50
269.987232
51
276.4110844
0
LINE
8
DEFAULT_255_2_778
10
48.9396643
20
17.6311764
11
48.9396643
21
17.6311764
0
LINE
8
DEFAULT_255_2_778
10
44.0283323
20
6.5112237
11
51.4697384
21
6.5112237
0
LINE
8
DEFAULT_255_2_778
10
51.4697384
20
6.5112237
11
51.4697384
21
43.7182539
0
LINE
8
DEFAULT_255_2_778
10
34.1064576
20
31.3159105
11
41.5478636
21
31.3159105
0
LINE
8
DEFAULT_255_2_778
10
34.1064576
20
18.9135671
11
39.067395
21
18.9135671
0
LINE
8
DEFAULT_255_2_778
10
46.508801
20
18.9135671
11
56.4306757
21
18.9135671
0
LINE
8
DEFAULT_255_2_778
10
44.0283323
20
31.3159105
11
51.4697384
21
31.3159105
0
LINE
8
DEFAULT_255_2_778
10
58.9111444
20
43.7182539
11
68.8330191
21
43.7182539
0
LINE
8
DEFAULT_255_2_778
10
58.9111444
20
18.9135671
11
68.8330191
21
18.9135671
0
LINE
8
DEFAULT_255_2_778
10
56.4306757
20
21.3940358
11
56.4306757
21
16.4330984
0
LINE
8
DEFAULT_255_2_778
10
58.9111444
20
21.3940358
11
58.9111444
21
16.4330984
0
LINE
8
DEFAULT_255_2_778
10
60.1513787
20
20.7739186
11
55.1904414
21
17.0532156
0
ENDSEC
0
EOF