0
SECTION
2
HEADER
0
ENDSEC
0
SECTION
2
TABLES
0
TABLE
2
LTYPE
0
LTYPE
72
65
70
64
2
CONTINUOUS
3
______
73
0
40
0
0
ENDTAB
0
TABLE
2
LAYER
0
LAYER
2
DEFAULT_255_2_778
70
0
62
255
6
CONTINUOUS
0
LAYER
2
DEFAULT_4_2_778
70
0
62
4
6
CONTINUOUS
0
ENDTAB
0
ENDSEC
0
SECTION
2
ENTITIES
0
LINE
8
DEFAULT_255_2_778
10
26.6650383
20
69.1430579
11
26.6650383
21
4.030755
0
LINE
8
DEFAULT_255_2_778
10
35.3466787
20
69.1430579
11
35.3466787
21
3.993548
0
LINE
8
DEFAULT_255_2_778
10
44.0283191
20
69.1430579
11
44.0283191
21
3.993548
0
LINE
8
DEFAULT_255_2_778
10
52.7099595
20
69.1430579
11
52.7099595
21
3.4106378
0
LINE
8
DEFAULT_4_2_778
10
35.3466787
20
4.0307484
11
35.3466787
21
-1.5503062
0
LINE
8
DEFAULT_4_2_778
10
35.3466787
20
-1.5503062
11
34.1064444
21
1.5502797
0
LINE
8
DEFAULT_4_2_778
10
34.1064444
20
1.5502797
11
36.586913
21
1.5502797
0
LINE
8
DEFAULT_4_2_778
10
36.586913
20
1.5502797
11
35.3466787
21
-1.5503062
0
LINE
8
DEFAULT_4_2_778
10
44.0283191
20
4.0307484
11
44.0283191
21
-1.5503062
0
LINE
8
DEFAULT_4_2_778
10
44.0283191
20
-1.5503062
11
42.7880847
21
1.5502797
0
LINE
8
DEFAULT_4_2_778
10
42.7880847
20
1.5502797
11
45.2685534
21
1.5502797
0
LINE
8
DEFAULT_4_2_778
10
45.2685534
20
1.5502797
11
44.0283191
21
-1.5503062
0
LINE
8
DEFAULT_4_2_778
10
52.7099595
20
4.0307484
11
52.7099595
21
-1.5503062
0
LINE
8
DEFAULT_4_2_778
10
52.7099595
20
-1.5503062
11
51.4697251
21
1.5502797
0
LINE
8
DEFAULT_4_2_778
10
51.4697251
20
1.5502797
11
53.9501938
21
1.5502797
0
LINE
8
DEFAULT_4_2_778
10
53.9501938
20
1.5502797
11
52.7099595
21
-1.5503062
0
LINE
8
DEFAULT_4_2_778
10
26.6650383
20
4.0307484
11
26.6650383
21
-1.5503062
0
LINE
8
DEFAULT_4_2_778
10
26.6650383
20
-1.5503062
11
25.424804
21
1.5502797
0
LINE
8
DEFAULT_4_2_778
10
25.424804
20
1.5502797
11
27.9052727
21
1.5502797
0
LINE
8
DEFAULT_4_2_778
10
27.9052727
20
1.5502797
11
26.6650383
21
-1.5503062
0
LINE
8
DEFAULT_4_2_778
10
26.6650515
20
69.1430513
11
26.6650515
21
71.6235199
0
LINE
8
DEFAULT_4_2_778
10
26.6650515
20
71.6235199
11
25.4248172
21
74.7241058
0
LINE
8
DEFAULT_4_2_778
10
25.4248172
20
74.7241058
11
27.9052859
21
74.7241058
0
LINE
8
DEFAULT_4_2_778
10
27.9052859
20
74.7241058
11
26.6650515
21
71.6235199
0
LINE
8
DEFAULT_4_2_778
10
35.3466919
20
69.1430513
11
35.3466919
21
71.6235199
0
LINE
8
DEFAULT_4_2_778
10
35.3466919
20
71.6235199
11
34.1064576
21
74.7241058
0
LINE
8
DEFAULT_4_2_778
10
34.1064576
20
74.7241058
11
36.5869263
21
74.7241058
0
LINE
8
DEFAULT_4_2_778
10
36.5869263
20
74.7241058
11
35.3466919
21
71.6235199
0
LINE
8
DEFAULT_4_2_778
10
44.0283323
20
69.1430513
11
44.0283323
21
71.6235199
0
LINE
8
DEFAULT_4_2_778
10
44.0283323
20
71.6235199
11
42.788098
21
74.7241058
0
LINE
8
DEFAULT_4_2_778
10
42.788098
20
74.7241058
11
45.2685667
21
74.7241058
0
LINE
8
DEFAULT_4_2_778
10
45.2685667
20
74.7241058
11
44.0283323
21
71.6235199
0
LINE
8
DEFAULT_4_2_778
10
52.7099727
20
69.1430513
11
52.7099727
21
71.6235199
0
LINE
8
DEFAULT_4_2_778
10
52.7099727
20
71.6235199
11
51.4697384
21
74.7241058
0
LINE
8
DEFAULT_4_2_778
10
51.4697384
20
74.7241058
11
53.950207
21
74.7241058
0
LINE
8
DEFAULT_4_2_778
10
53.950207
20
74.7241058
11
52.7099727
21
71.6235199
0
ENDSEC
0
EOF