0
SECTION
2
HEADER
0
ENDSEC
0
SECTION
2
TABLES
0
TABLE
2
LTYPE
0
LTYPE
72
65
70
64
2
CONTINUOUS
3
______
73
0
40
0
0
LTYPE
72
65
70
64
2
DASH_DEFAULT_255_2_778_064_085
3
______
73
2
40
2
49
-0.19921568073322585
49
0.2645833259738156
0
ENDTAB
0
TABLE
2
LAYER
0
LAYER
2
DEFAULT_255_2_778
70
0
62
255
6
CONTINUOUS
0
LAYER
2
DEFAULT_255_2_778_064_085
70
0
62
255
6
DASH_DEFAULT_255_2_778_064_085
0
LAYER
2
DEFAULT_4_2_778
70
0
62
4
6
CONTINUOUS
0
ENDTAB
0
ENDSEC
0
SECTION
2
ENTITIES
0
LINE
8
DEFAULT_255_2_778
10
11.1621223
20
20.4638666
11
9.921888
21
19.2236323
0
ARC
8
0
10
21.1797642
20
5.5851933
40
7.5371876
50
169.2775403
51
180.0315623
0
ARC
8
0
10
21.0426217
20
5.6093895
40
7.3979381
50
155.1724842
51
169.26405
0
ARC
8
0
10
21.0739329
20
5.5908394
40
7.4341453
50
112.9155259
51
155.1440572
0
ARC
8
0
10
21.0575355
20
5.6164152
40
7.4042049
50
99.3536301
51
112.8757139
0
ARC
8
0
10
21.0806881
20
5.4708816
40
7.5515665
50
89.9749944
51
99.347496
0
ARC
8
0
10
21.0881368
20
5.4852785
40
7.53717
50
79.2775193
51
90.0315705
0
ARC
8
0
10
21.1123335
20
5.622405
40
7.3979363
50
65.1724828
51
79.2640548
0
ARC
8
0
10
21.093783
20
5.5910936
40
7.4341438
50
22.9155153
51
65.1440536
0
ARC
8
0
10
21.119369
20
5.6074931
40
7.4041932
50
9.3536155
51
22.8757188
0
ARC
8
0
10
20.9738244
20
5.5843369
40
7.5515662
50
359.9749955
51
9.3474957
0
ARC
8
0
10
20.9881943
20
5.5768891
40
7.5371966
50
349.2775464
51
0.0315636
0
ARC
8
0
10
21.1253451
20
5.5526912
40
7.3979387
50
335.1724885
51
349.2640574
0
ARC
8
0
10
21.0940407
20
5.5712377
40
7.4341384
50
292.9155008
51
335.1440643
0
ARC
8
0
10
21.1104351
20
5.5456644
40
7.4042017
50
279.3536128
51
292.8757028
0
ARC
8
0
10
21.0872794
20
5.6912061
40
7.5515717
50
269.9749955
51
279.3474925
0
ARC
8
0
10
21.0798288
20
5.676804
40
7.5371699
50
259.2775359
51
270.0315853
0
ARC
8
0
10
21.0556325
20
5.5396762
40
7.3979347
50
245.1724945
51
259.2640671
0
ARC
8
0
10
21.0741816
20
5.5709861
40
7.4341403
50
202.9155163
51
245.1440705
0
ARC
8
0
10
21.0486105
20
5.5545915
40
7.4042055
50
189.3536234
51
202.8757098
0
ARC
8
0
10
21.194153
20
5.5777456
40
7.551576
50
179.9749943
51
189.3474898
0
LINE
8
DEFAULT_255_2_778
10
13.6425777
20
5.5810413
11
13.6425777
21
5.5810413
0
LINE
8
DEFAULT_255_2_778_064_085
10
9.9218747
20
57.6708836
11
39.6874989
21
57.6708836
0
ARC
8
0
10
33.4834298
20
53.9530722
40
1.2373403
50
147.40655
51
180.1338998
0
ARC
8
0
10
33.4829607
20
53.9535598
40
1.2366826
50
96.4510224
51
147.4138746
0
ARC
8
0
10
33.4860419
20
53.9261569
40
1.2642581
50
89.987072
51
96.4502459
0
ARC
8
0
10
33.4892187
20
53.9530766
40
1.2373417
50
57.4066251
51
90.1338907
0
ARC
8
0
10
33.4897075
20
53.9535477
40
1.2366814
50
6.4510132
51
57.4139476
0
ARC
8
0
10
33.4622967
20
53.9504659
40
1.2642649
50
359.9870718
51
6.4502275
0
ARC
8
0
10
33.4892246
20
53.9472889
40
1.2373403
50
327.40655
51
0.1338998
0
ARC
8
0
10
33.4896936
20
53.9468014
40
1.2366826
50
276.4510224
51
327.4138746
0
ARC
8
0
10
33.4866125
20
53.9742042
40
1.2642581
50
269.987072
51
276.4502459
0
ARC
8
0
10
33.4834357
20
53.9472846
40
1.2373417
50
237.4066251
51
270.1338907
0
ARC
8
0
10
33.4829469
20
53.9468134
40
1.2366814
50
186.4510132
51
237.4139476
0
ARC
8
0
10
33.5103577
20
53.9498953
40
1.2642649
50
179.9870718
51
186.4502275
0
LINE
8
DEFAULT_255_2_778
10
32.2460929
20
53.9501806
11
32.2460929
21
53.9501806
0
ARC
8
0
10
28.6162506
20
56.4754596
40
8.8430207
50
28.0646863
51
33.7750015
0
ARC
8
0
10
29.8732898
20
57.1433515
40
7.4195666
50
20.9970594
51
28.0804218
0
ARC
8
0
10
30.9131098
20
57.5391197
40
6.3069808
50
11.2514278
51
21.0252176
0
ARC
8
0
10
31.5313274
20
57.6668894
40
5.6757174
50
0.0403212
51
11.2040765
0
ARC
8
0
10
31.4537034
20
57.6806904
40
5.7533484
50
344.967023
51
359.9023369
0
ARC
8
0
10
30.5891779
20
57.9071325
40
6.6470226
50
336.3826626
51
345.0148086
0
ARC
8
0
10
29.4644651
20
58.3956741
40
7.8732545
50
329.8012872
51
336.4042573
0
ARC
8
0
10
28.3719972
20
59.020074
40
9.131538
50
326.2750295
51
329.8631023
0
LINE
8
DEFAULT_255_2_778
10
8.6816404
20
22.9443353
11
8.6816404
21
14.2626949
0
LINE
8
DEFAULT_255_2_778
10
8.6816404
20
14.2626949
11
14.8828121
21
9.3017576
0
LINE
8
DEFAULT_255_2_778
10
21.0839838
20
22.9443353
11
21.0839838
21
13.0224606
0
LINE
8
DEFAULT_255_2_778
10
33.4863272
20
22.9443353
11
33.4863272
21
14.2626949
0
LINE
8
DEFAULT_255_2_778
10
33.4863272
20
14.2626949
11
27.2851555
21
9.3017576
0
ARC
8
0
10
21.1159108
20
24.749044
40
1.8930965
50
128.6201593
51
178.3156935
0
ARC
8
0
10
21.1183464
20
24.8436151
40
1.8217473
50
91.0808033
51
130.5368228
0
ARC
8
0
10
21.028341
20
24.7727597
40
1.8930966
50
38.6201925
51
88.3156921
0
ARC
8
0
10
21.122913
20
24.7703246
40
1.8217464
50
1.0807893
51
40.5368632
0
ARC
8
0
10
21.0520567
20
24.8603296
40
1.8930965
50
308.6201593
51
358.3156935
0
ARC
8
0
10
21.0496212
20
24.7657585
40
1.8217473
50
271.0808033
51
310.5368228
0
ARC
8
0
10
21.1396266
20
28.4934627
40
1.8930966
50
91.6843079
51
141.3798075
0
ARC
8
0
10
21.0450546
20
28.4910277
40
1.8217464
50
139.4631368
51
178.9192107
0
ARC
8
0
10
21.1159108
20
28.5810326
40
1.8930965
50
181.6843065
51
231.3798407
0
ARC
8
0
10
21.1183464
20
28.4864615
40
1.8217473
50
229.4631772
51
268.9191967
0
ARC
8
0
10
21.028341
20
28.557317
40
1.8930966
50
271.6843079
51
321.3798075
0
ARC
8
0
10
21.122913
20
28.559752
40
1.8217464
50
319.4631368
51
358.9192107
0
ARC
8
0
10
33.4834309
20
61.3944785
40
1.2373414
50
147.406569
51
180.1339098
0
ARC
8
0
10
33.4829602
20
61.3949662
40
1.2366822
50
96.4509994
51
147.413861
0
ARC
8
0
10
33.4860419
20
61.367563
40
1.2642581
50
89.987072
51
96.4502459
0
ARC
8
0
10
33.4892184
20
61.3944806
40
1.2373437
50
57.4066706
51
90.1338766
0
ARC
8
0
10
33.4897083
20
61.3949545
40
1.2366805
50
6.4509904
51
57.4139688
0
ARC
8
0
10
33.4622951
20
61.3918719
40
1.2642666
50
359.9870717
51
6.4502273
0
ARC
8
0
10
33.4892235
20
61.3886948
40
1.2373414
50
327.406569
51
0.1339098
0
ARC
8
0
10
33.4896942
20
61.388207
40
1.2366822
50
276.4509994
51
327.413861
0
ARC
8
0
10
33.4866125
20
61.4156103
40
1.2642581
50
269.987072
51
276.4502459
0
ARC
8
0
10
33.483436
20
61.3886927
40
1.2373437
50
237.4066706
51
270.1338766
0
ARC
8
0
10
33.482946
20
61.3882187
40
1.2366805
50
186.4509904
51
237.4139688
0
ARC
8
0
10
33.5103593
20
61.3913014
40
1.2642666
50
179.9870717
51
186.4502273
0
LINE
8
DEFAULT_255_2_778
10
32.2460929
20
61.3915866
11
32.2460929
21
61.3915866
0
ARC
8
0
10
21.0810864
20
53.9530722
40
1.2373403
50
147.40655
51
180.1338998
0
ARC
8
0
10
21.0806173
20
53.9535598
40
1.2366826
50
96.4510224
51
147.4138746
0
ARC
8
0
10
21.0836985
20
53.9261569
40
1.2642581
50
89.987072
51
96.4502459
0
ARC
8
0
10
21.0868752
20
53.9530766
40
1.2373417
50
57.4066251
51
90.1338907
0
ARC
8
0
10
21.0873641
20
53.9535477
40
1.2366814
50
6.4510132
51
57.4139476
0
ARC
8
0
10
21.0599533
20
53.9504659
40
1.2642649
50
359.9870718
51
6.4502275
0
ARC
8
0
10
21.0868812
20
53.9472889
40
1.2373403
50
327.40655
51
0.1338998
0
ARC
8
0
10
21.0873502
20
53.9468014
40
1.2366826
50
276.4510224
51
327.4138746
0
ARC
8
0
10
21.0842691
20
53.9742042
40
1.2642581
50
269.987072
51
276.4502459
0
ARC
8
0
10
21.0810923
20
53.9472846
40
1.2373417
50
237.4066251
51
270.1338907
0
ARC
8
0
10
21.0806035
20
53.9468134
40
1.2366814
50
186.4510132
51
237.4139476
0
ARC
8
0
10
21.1080143
20
53.9498953
40
1.2642649
50
179.9870718
51
186.4502275
0
LINE
8
DEFAULT_255_2_778
10
19.8437494
20
53.9501806
11
19.8437494
21
53.9501806
0
ARC
8
0
10
16.2139072
20
56.4754596
40
8.8430207
50
28.0646863
51
33.7750015
0
ARC
8
0
10
17.4709464
20
57.1433515
40
7.4195666
50
20.9970594
51
28.0804218
0
ARC
8
0
10
18.5107664
20
57.5391197
40
6.3069808
50
11.2514278
51
21.0252176
0
ARC
8
0
10
19.128984
20
57.6668894
40
5.6757174
50
0.0403212
51
11.2040765
0
ARC
8
0
10
19.05136
20
57.6806904
40
5.7533484
50
344.967023
51
359.9023369
0
ARC
8
0
10
18.1868345
20
57.9071325
40
6.6470226
50
336.3826626
51
345.0148086
0
ARC
8
0
10
17.0621217
20
58.3956741
40
7.8732545
50
329.8012872
51
336.4042573
0
ARC
8
0
10
15.9696538
20
59.020074
40
9.131538
50
326.2750295
51
329.8631023
0
ARC
8
0
10
21.0810875
20
61.3944785
40
1.2373414
50
147.406569
51
180.1339098
0
ARC
8
0
10
21.0806168
20
61.3949662
40
1.2366822
50
96.4509994
51
147.413861
0
ARC
8
0
10
21.0836985
20
61.367563
40
1.2642581
50
89.987072
51
96.4502459
0
ARC
8
0
10
21.0868749
20
61.3944806
40
1.2373437
50
57.4066706
51
90.1338766
0
ARC
8
0
10
21.0873649
20
61.3949545
40
1.2366805
50
6.4509904
51
57.4139688
0
ARC
8
0
10
21.0599517
20
61.3918719
40
1.2642666
50
359.9870717
51
6.4502273
0
ARC
8
0
10
21.0868801
20
61.3886948
40
1.2373414
50
327.406569
51
0.1339098
0
ARC
8
0
10
21.0873508
20
61.388207
40
1.2366822
50
276.4509994
51
327.413861
0
ARC
8
0
10
21.0842691
20
61.4156103
40
1.2642581
50
269.987072
51
276.4502459
0
ARC
8
0
10
21.0810926
20
61.3886927
40
1.2373437
50
237.4066706
51
270.1338766
0
ARC
8
0
10
21.0806026
20
61.3882187
40
1.2366805
50
186.4509904
51
237.4139688
0
ARC
8
0
10
21.1080159
20
61.3913014
40
1.2642666
50
179.9870717
51
186.4502273
0
LINE
8
DEFAULT_255_2_778
10
19.8437494
20
61.3915866
11
19.8437494
21
61.3915866
0
ARC
8
0
10
8.6787431
20
53.9530722
40
1.2373404
50
147.4065491
51
180.1338992
0
ARC
8
0
10
8.6782743
20
53.9535595
40
1.236683
50
96.4510348
51
147.4138728
0
ARC
8
0
10
8.6813553
20
53.926156
40
1.2642591
50
89.9870788
51
96.4502438
0
ARC
8
0
10
8.6845316
20
53.9530777
40
1.2373406
50
57.406606
51
90.1338807
0
ARC
8
0
10
8.6850202
20
53.9535472
40
1.2366819
50
6.4510362
51
57.4139612
0
ARC
8
0
10
8.6576099
20
53.9504658
40
1.2642649
50
359.9870719
51
6.4502275
0
ARC
8
0
10
8.6845399
20
53.9472886
40
1.2373382
50
327.4065045
51
0.1339139
0
ARC
8
0
10
8.6850061
20
53.9468023
40
1.2366836
50
276.4510451
51
327.4138535
0
ARC
8
0
10
8.6819256
20
53.974199
40
1.2642529
50
269.987072
51
276.4502643
0
ARC
8
0
10
8.678749
20
53.9472835
40
1.2373406
50
237.4066056
51
270.1338892
0
ARC
8
0
10
8.678261
20
53.9468142
40
1.2366824
50
186.4510423
51
237.413939
0
ARC
8
0
10
8.7056709
20
53.9498953
40
1.2642649
50
179.9870718
51
186.4502275
0
LINE
8
DEFAULT_255_2_778
10
7.441406
20
53.9501806
11
7.441406
21
53.9501806
0
ARC
8
0
10
3.8115638
20
56.4754596
40
8.8430207
50
28.0646863
51
33.7750015
0
ARC
8
0
10
5.068603
20
57.1433515
40
7.4195666
50
20.9970594
51
28.0804218
0
ARC
8
0
10
6.108423
20
57.5391197
40
6.3069808
50
11.2514278
51
21.0252176
0
ARC
8
0
10
6.7266406
20
57.6668894
40
5.6757174
50
0.0403212
51
11.2040765
0
ARC
8
0
10
6.6490166
20
57.6806904
40
5.7533484
50
344.967023
51
359.9023369
0
ARC
8
0
10
5.7844911
20
57.9071325
40
6.6470226
50
336.3826626
51
345.0148086
0
ARC
8
0
10
4.6597783
20
58.3956741
40
7.8732545
50
329.8012872
51
336.4042573
0
ARC
8
0
10
3.5673104
20
59.020074
40
9.131538
50
326.2750295
51
329.8631023
0
ARC
8
0
10
8.6787442
20
61.3944785
40
1.2373415
50
147.4065681
51
180.1339092
0
ARC
8
0
10
8.6782738
20
61.394966
40
1.2366825
50
96.4510118
51
147.4138592
0
ARC
8
0
10
8.6813553
20
61.3675621
40
1.2642591
50
89.9870788
51
96.4502437
0
ARC
8
0
10
8.6845313
20
61.3944817
40
1.2373426
50
57.4066515
51
90.1338666
0
ARC
8
0
10
8.6850211
20
61.394954
40
1.2366809
50
6.4510134
51
57.4139824
0
ARC
8
0
10
8.6576083
20
61.3918719
40
1.2642666
50
359.9870717
51
6.4502273
0
ARC
8
0
10
8.6845387
20
61.3886945
40
1.2373394
50
327.4065235
51
0.1339239
0
ARC
8
0
10
8.6850066
20
61.3882079
40
1.2366831
50
276.4510221
51
327.4138398
0
ARC
8
0
10
8.6819256
20
61.415605
40
1.2642529
50
269.987072
51
276.4502642
0
ARC
8
0
10
8.6787493
20
61.3886916
40
1.2373427
50
237.406651
51
270.1338751
0
ARC
8
0
10
8.6782601
20
61.3882194
40
1.2366815
50
186.4510195
51
237.4139602
0
ARC
8
0
10
8.7056725
20
61.3913014
40
1.2642666
50
179.9870717
51
186.4502273
0
LINE
8
DEFAULT_255_2_778
10
7.441406
20
61.3915866
11
7.441406
21
61.3915866
0
ARC
8
0
10
33.480876
20
17.9887745
40
1.2347908
50
147.0597073
51
180.1348759
0
ARC
8
0
10
33.480463
20
17.9892892
40
1.2341643
50
96.4106368
51
147.0693358
0
ARC
8
0
10
33.4835589
20
17.9618122
40
1.2618152
50
89.9872317
51
96.4110291
0
ARC
8
0
10
33.4867463
20
17.9888596
40
1.2347711
50
57.0592706
51
90.1348536
0
ARC
8
0
10
33.4872426
20
17.9892485
40
1.2341749
50
6.4104335
51
57.0687878
0
ARC
8
0
10
33.4597687
20
17.9861489
40
1.2618231
50
359.9872321
51
6.411011
0
ARC
8
0
10
33.4868217
20
17.9829636
40
1.2347733
50
327.0594684
51
0.1347585
0
ARC
8
0
10
33.487214
20
17.9824601
40
1.2341702
50
276.4107544
51
327.0691831
0
ARC
8
0
10
33.4841213
20
18.0099314
40
1.2618152
50
269.9872318
51
276.4110292
0
ARC
8
0
10
33.4809346
20
17.9828845
40
1.2347716
50
237.0592393
51
270.1348197
0
ARC
8
0
10
33.4804357
20
17.9824954
40
1.2341736
50
186.4107265
51
237.0688592
0
ARC
8
0
10
33.5078748
20
17.9855867
40
1.2617863
50
179.9872395
51
186.4111012
0
LINE
8
DEFAULT_255_2_778
10
32.2460887
20
17.9858678
11
32.2460887
21
17.9858678
0
ARC
8
0
10
33.5182543
20
24.749044
40
1.8930965
50
128.6201593
51
178.3156935
0
ARC
8
0
10
33.5206898
20
24.8436151
40
1.8217473
50
91.0808033
51
130.5368228
0
ARC
8
0
10
33.4306844
20
24.7727597
40
1.8930966
50
38.6201925
51
88.3156921
0
ARC
8
0
10
33.5252564
20
24.7703246
40
1.8217464
50
1.0807893
51
40.5368632
0
ARC
8
0
10
33.4544001
20
24.8603296
40
1.8930965
50
308.6201593
51
358.3156935
0
ARC
8
0
10
33.4519646
20
24.7657585
40
1.8217473
50
271.0808033
51
310.5368228
0
ARC
8
0
10
33.54197
20
28.4934627
40
1.8930966
50
91.6843079
51
141.3798075
0
ARC
8
0
10
33.447398
20
28.4910277
40
1.8217464
50
139.4631368
51
178.9192107
0
ARC
8
0
10
33.5182543
20
28.5810326
40
1.8930965
50
181.6843065
51
231.3798407
0
ARC
8
0
10
33.5206898
20
28.4864615
40
1.8217473
50
229.4631772
51
268.9191967
0
ARC
8
0
10
33.4306844
20
28.557317
40
1.8930966
50
271.6843079
51
321.3798075
0
ARC
8
0
10
33.5252564
20
28.559752
40
1.8217464
50
319.4631368
51
358.9192107
0
ARC
8
0
10
8.7135672
20
24.7490441
40
1.8930963
50
128.6201603
51
178.3156945
0
ARC
8
0
10
8.7160028
20
24.8436151
40
1.8217473
50
91.0807966
51
130.536823
0
ARC
8
0
10
8.6259982
20
24.7727604
40
1.8930958
50
38.6201803
51
88.3157108
0
ARC
8
0
10
8.7205699
20
24.7703253
40
1.821746
50
1.0807698
51
40.536848
0
ARC
8
0
10
8.6497137
20
24.860329
40
1.8930961
50
308.6201698
51
358.3157093
0
ARC
8
0
10
8.6472782
20
24.7657585
40
1.8217473
50
271.0807898
51
310.5368232
0
ARC
8
0
10
8.737283
20
28.4934627
40
1.8930965
50
91.6843007
51
141.3798074
0
ARC
8
0
10
8.6427125
20
28.4910274
40
1.8217477
50
139.4631603
51
178.9192035
0
ARC
8
0
10
8.7135672
20
28.5810326
40
1.8930963
50
181.6843055
51
231.3798397
0
ARC
8
0
10
8.7160028
20
28.4864615
40
1.8217473
50
229.463177
51
268.9192034
0
ARC
8
0
10
8.6259982
20
28.5573162
40
1.8930958
50
271.6842892
51
321.3798197
0
ARC
8
0
10
8.7205699
20
28.5597514
40
1.821746
50
319.463152
51
358.9192302
0
LINE
8
DEFAULT_255_2_778
10
6.2011717
20
42.7880715
11
11.1621091
21
42.7880715
0
LINE
8
DEFAULT_255_2_778
10
6.2011717
20
40.3076028
11
11.1621091
21
40.3076028
0
LINE
8
DEFAULT_255_2_778
10
18.6035151
20
42.7880715
11
23.5644525
21
42.7880715
0
LINE
8
DEFAULT_255_2_778
10
18.6035151
20
40.3076028
11
23.5644525
21
40.3076028
0
LINE
8
DEFAULT_255_2_778
10
31.0058585
20
42.7880715
11
35.9667959
21
42.7880715
0
LINE
8
DEFAULT_255_2_778
10
31.0058585
20
40.3076028
11
35.9667959
21
40.3076028
0
LINE
8
DEFAULT_255_2_778
10
21.0839838
20
40.3076161
11
21.0839838
21
30.3857413
0
LINE
8
DEFAULT_255_2_778
10
33.4863272
20
40.3076161
11
33.4863272
21
30.3857413
0
LINE
8
DEFAULT_255_2_778
10
8.6816404
20
40.3076161
11
8.6816404
21
30.3857413
0
LINE
8
DEFAULT_255_2_778
10
8.6816404
20
52.7099595
11
8.6816404
21
42.7880847
0
LINE
8
DEFAULT_255_2_778
10
21.0839838
20
52.7099595
11
21.0839838
21
42.7880847
0
LINE
8
DEFAULT_255_2_778
10
33.4863272
20
52.7099595
11
33.4863272
21
42.7880847
0
LINE
8
DEFAULT_255_2_778
10
8.6816404
20
71.3134746
11
8.6816404
21
62.6318342
0
LINE
8
DEFAULT_255_2_778
10
21.0839838
20
68.8330059
11
21.0839838
21
62.6318342
0
LINE
8
DEFAULT_255_2_778
10
33.4863272
20
66.3525372
11
33.4863272
21
62.6318342
0
LINE
8
DEFAULT_4_2_778
10
11.1621091
20
71.3134613
11
6.2011717
21
71.3134613
0
LINE
8
DEFAULT_4_2_778
10
8.6816404
20
73.79393
11
8.6816404
21
71.3134613
0
LINE
8
DEFAULT_4_2_778
10
23.5644525
20
68.8329927
11
18.6035151
21
68.8329927
0
LINE
8
DEFAULT_4_2_778
10
21.0839838
20
71.3134613
11
21.0839838
21
68.8329927
0
LINE
8
DEFAULT_4_2_778
10
35.9667959
20
66.352524
11
31.0058585
21
66.352524
0
LINE
8
DEFAULT_4_2_778
10
33.4863272
20
68.8329927
11
33.4863272
21
66.352524
0
ARC
8
0
10
21.0785326
20
17.9887745
40
1.2347908
50
147.0597073
51
180.1348759
0
ARC
8
0
10
21.0781196
20
17.9892892
40
1.2341643
50
96.4106368
51
147.0693358
0
ARC
8
0
10
21.0812155
20
17.9618122
40
1.2618152
50
89.9872317
51
96.4110291
0
ARC
8
0
10
21.0844029
20
17.9888596
40
1.2347711
50
57.0592706
51
90.1348536
0
ARC
8
0
10
21.0848992
20
17.9892485
40
1.2341749
50
6.4104335
51
57.0687878
0
ARC
8
0
10
21.0574253
20
17.9861489
40
1.2618231
50
359.9872321
51
6.411011
0
ARC
8
0
10
21.0844783
20
17.9829636
40
1.2347733
50
327.0594684
51
0.1347585
0
ARC
8
0
10
21.0848706
20
17.9824601
40
1.2341702
50
276.4107544
51
327.0691831
0
ARC
8
0
10
21.0817779
20
18.0099314
40
1.2618152
50
269.9872318
51
276.4110292
0
ARC
8
0
10
21.0785912
20
17.9828845
40
1.2347716
50
237.0592393
51
270.1348197
0
ARC
8
0
10
21.0780922
20
17.9824954
40
1.2341736
50
186.4107265
51
237.0688592
0
ARC
8
0
10
21.1055314
20
17.9855867
40
1.2617863
50
179.9872395
51
186.4111012
0
LINE
8
DEFAULT_255_2_778
10
19.8437453
20
17.9858678
11
19.8437453
21
17.9858678
0
ARC
8
0
10
8.6761879
20
17.9887735
40
1.234793
50
147.0597218
51
180.1348293
0
ARC
8
0
10
8.6757731
20
17.989289
40
1.2341646
50
96.4106492
51
147.069334
0
ARC
8
0
10
8.6788687
20
17.9618112
40
1.2618162
50
89.9872386
51
96.4110269
0
ARC
8
0
10
8.6820548
20
17.9888501
40
1.2347806
50
57.0593997
51
90.1347987
0
ARC
8
0
10
8.6825577
20
17.9892435
40
1.234177
50
6.4106549
51
57.0690628
0
ARC
8
0
10
8.6550853
20
17.9861489
40
1.2618231
50
359.9872322
51
6.4110112
0
ARC
8
0
10
8.6821455
20
17.9829652
40
1.2347662
50
327.0591664
51
0.1346843
0
ARC
8
0
10
8.6825214
20
17.9824723
40
1.2341828
50
276.4107936
51
327.068881
0
ARC
8
0
10
8.6794308
20
18.0099325
40
1.2618162
50
269.9872393
51
276.4110276
0
ARC
8
0
10
8.6762445
20
17.9828844
40
1.2347716
50
237.0592397
51
270.1348111
0
ARC
8
0
10
8.6757455
20
17.9824959
40
1.234174
50
186.4107482
51
237.068872
0
ARC
8
0
10
8.7031844
20
17.9855867
40
1.2617863
50
179.9872395
51
186.4111012
0
LINE
8
DEFAULT_255_2_778
10
7.4413983
20
17.9858678
11
7.4413983
21
17.9858678
0
LINE
8
DEFAULT_255_2_778
10
7.441406
20
16.7431504
11
6.2011717
21
15.502916
0
LINE
8
DEFAULT_255_2_778
10
23.5644525
20
20.4638534
11
22.3242181
21
19.223619
0
LINE
8
DEFAULT_255_2_778
10
19.8437494
20
16.7431504
11
18.6035151
21
15.502916
0
LINE
8
DEFAULT_255_2_778
10
35.9667959
20
20.4638534
11
34.7265615
21
19.223619
0
LINE
8
DEFAULT_255_2_778
10
32.2460929
20
16.7431504
11
31.0058585
21
15.502916
0
LINE
8
DEFAULT_255_2_778
10
43.4082019
20
42.7880715
11
48.3691393
21
42.7880715
0
LINE
8
DEFAULT_255_2_778
10
43.4082019
20
40.3076028
11
48.3691393
21
40.3076028
0
LINE
8
DEFAULT_255_2_778
10
55.8105453
20
42.7880715
11
60.7714827
21
42.7880715
0
LINE
8
DEFAULT_255_2_778
10
55.8105453
20
40.3076028
11
60.7714827
21
40.3076028
0
LINE
8
DEFAULT_255_2_778
10
68.2128887
20
42.7880715
11
73.1738261
21
42.7880715
0
LINE
8
DEFAULT_255_2_778
10
68.2128887
20
40.3076028
11
73.1738261
21
40.3076028
0
LINE
8
DEFAULT_255_2_778
10
33.4863272
20
45.2685402
11
45.8886706
21
45.2685402
0
LINE
8
DEFAULT_255_2_778
10
45.8886706
20
45.2685402
11
45.8886706
21
42.7880715
0
LINE
8
DEFAULT_255_2_778
10
45.8886706
20
40.3076028
11
45.8886706
21
37.8271342
0
LINE
8
DEFAULT_255_2_778
10
45.8886706
20
37.8271342
11
8.6816404
21
37.8271342
0
LINE
8
DEFAULT_255_2_778
10
21.0839838
20
47.7490089
11
58.291014
21
47.7490089
0
LINE
8
DEFAULT_255_2_778
10
58.291014
20
47.7490089
11
58.291014
21
42.7880715
0
LINE
8
DEFAULT_255_2_778
10
58.291014
20
40.3076028
11
58.291014
21
35.3466655
0
LINE
8
DEFAULT_255_2_778
10
58.291014
20
35.3466655
11
21.0839838
21
35.3466655
0
LINE
8
DEFAULT_255_2_778
10
8.6816404
20
50.2294776
11
70.6933574
21
50.2294776
0
LINE
8
DEFAULT_255_2_778
10
70.6933574
20
50.2294776
11
70.6933574
21
42.7880715
0
LINE
8
DEFAULT_255_2_778
10
70.6933574
20
40.3076028
11
70.6933574
21
32.8661968
0
LINE
8
DEFAULT_255_2_778
10
70.6933574
20
32.8661968
11
33.4863272
21
32.8661968
0
ENDSEC
0
EOF