0
SECTION
2
HEADER
0
ENDSEC
0
SECTION
2
TABLES
0
TABLE
2
LTYPE
0
LTYPE
72
65
70
64
2
CONTINUOUS
3
______
73
0
40
0
0
ENDTAB
0
TABLE
2
LAYER
0
LAYER
2
DEFAULT_255_2_778
70
0
62
255
6
CONTINUOUS
0
ENDTAB
0
ENDSEC
0
SECTION
2
ENTITIES
0
LINE
8
DEFAULT_255_2_778
10
0.6201304
20
40.3076161
11
13.0224738
21
40.3076161
0
LINE
8
DEFAULT_255_2_778
10
13.0224738
20
40.3076161
11
13.0224738
21
36.586913
0
LINE
8
DEFAULT_255_2_778
10
13.0224738
20
36.586913
11
0.6201304
21
36.586913
0
LINE
8
DEFAULT_255_2_778
10
0.6201304
20
36.586913
11
0.6201304
21
40.3076161
0
LINE
8
DEFAULT_255_2_778
10
13.0224738
20
40.3076161
11
25.4248172
21
40.3076161
0
LINE
8
DEFAULT_255_2_778
10
25.4248172
20
40.3076161
11
25.4248172
21
36.586913
0
LINE
8
DEFAULT_255_2_778
10
25.4248172
20
36.586913
11
13.0224738
21
36.586913
0
LINE
8
DEFAULT_255_2_778
10
13.0224738
20
36.586913
11
13.0224738
21
40.3076161
0
LINE
8
DEFAULT_255_2_778
10
25.4248172
20
40.3076161
11
37.8271606
21
40.3076161
0
LINE
8
DEFAULT_255_2_778
10
37.8271606
20
40.3076161
11
37.8271606
21
36.586913
0
LINE
8
DEFAULT_255_2_778
10
37.8271606
20
36.586913
11
25.4248172
21
36.586913
0
LINE
8
DEFAULT_255_2_778
10
25.4248172
20
36.586913
11
25.4248172
21
40.3076161
0
LINE
8
DEFAULT_255_2_778
10
37.8271606
20
40.3076161
11
50.229504
21
40.3076161
0
LINE
8
DEFAULT_255_2_778
10
50.229504
20
40.3076161
11
50.229504
21
36.586913
0
LINE
8
DEFAULT_255_2_778
10
50.229504
20
36.586913
11
37.8271606
21
36.586913
0
LINE
8
DEFAULT_255_2_778
10
37.8271606
20
36.586913
11
37.8271606
21
40.3076161
0
LINE
8
DEFAULT_255_2_778
10
50.229504
20
40.3076161
11
62.6318474
21
40.3076161
0
LINE
8
DEFAULT_255_2_778
10
62.6318474
20
40.3076161
11
62.6318474
21
36.586913
0
LINE
8
DEFAULT_255_2_778
10
62.6318474
20
36.586913
11
50.229504
21
36.586913
0
LINE
8
DEFAULT_255_2_778
10
50.229504
20
36.586913
11
50.229504
21
40.3076161
0
LINE
8
DEFAULT_255_2_778
10
62.6318474
20
40.3076161
11
75.0341908
21
40.3076161
0
LINE
8
DEFAULT_255_2_778
10
75.0341908
20
40.3076161
11
75.0341908
21
36.586913
0
LINE
8
DEFAULT_255_2_778
10
75.0341908
20
36.586913
11
62.6318474
21
36.586913
0
LINE
8
DEFAULT_255_2_778
10
62.6318474
20
36.586913
11
62.6318474
21
40.3076161
0
LINE
8
DEFAULT_255_2_778
10
75.0341776
20
40.3076028
11
78.7548806
21
40.3076028
0
LINE
8
DEFAULT_255_2_778
10
78.7548806
20
40.3076028
11
78.7548806
21
36.5868998
0
LINE
8
DEFAULT_255_2_778
10
78.7548806
20
36.5868998
11
75.0341776
21
36.5868998
0
LINE
8
DEFAULT_255_2_778
10
75.0341776
20
36.5868998
11
75.0341776
21
40.3076028
0
LINE
8
DEFAULT_255_2_778
10
75.0341776
20
27.9052594
11
78.7548806
21
27.9052594
0
LINE
8
DEFAULT_255_2_778
10
78.7548806
20
27.9052594
11
78.7548806
21
15.502916
0
LINE
8
DEFAULT_255_2_778
10
78.7548806
20
15.502916
11
75.0341776
21
15.502916
0
LINE
8
DEFAULT_255_2_778
10
75.0341776
20
15.502916
11
75.0341776
21
27.9052594
0
LINE
8
DEFAULT_255_2_778
10
75.0341776
20
15.502916
11
78.7548806
21
15.502916
0
LINE
8
DEFAULT_255_2_778
10
78.7548806
20
15.502916
11
78.7548806
21
3.1005726
0
LINE
8
DEFAULT_255_2_778
10
78.7548806
20
3.1005726
11
75.0341776
21
3.1005726
0
LINE
8
DEFAULT_255_2_778
10
75.0341776
20
3.1005726
11
75.0341776
21
15.502916
0
LINE
8
DEFAULT_255_2_778
10
75.0341776
20
3.1005726
11
78.7548806
21
3.1005726
0
LINE
8
DEFAULT_255_2_778
10
78.7548806
20
3.1005726
11
78.7548806
21
-13.0224738
0
LINE
8
DEFAULT_255_2_778
10
78.7548806
20
-13.0224738
11
75.0341776
21
-13.0224738
0
LINE
8
DEFAULT_255_2_778
10
75.0341776
20
-13.0224738
11
75.0341776
21
3.1005726
0
LINE
8
DEFAULT_255_2_778
10
75.0341776
20
36.5868998
11
78.7548806
21
36.5868998
0
LINE
8
DEFAULT_255_2_778
10
78.7548806
20
36.5868998
11
78.7548806
21
27.9052594
0
LINE
8
DEFAULT_255_2_778
10
78.7548806
20
27.9052594
11
75.0341776
21
27.9052594
0
LINE
8
DEFAULT_255_2_778
10
75.0341776
20
27.9052594
11
75.0341776
21
36.5868998
0
LINE
8
DEFAULT_255_2_778
10
0.6201304
20
36.5868998
11
75.0341908
21
36.5868998
0
LINE
8
DEFAULT_255_2_778
10
75.0341908
20
36.5868998
11
75.0341908
21
-13.0224738
0
LINE
8
DEFAULT_255_2_778
10
75.0341908
20
-13.0224738
11
0.6201304
21
-13.0224738
0
LINE
8
DEFAULT_255_2_778
10
0.6201304
20
-13.0224738
11
0.6201304
21
36.5868998
0
ENDSEC
0
EOF