0
SECTION
2
HEADER
0
ENDSEC
0
SECTION
2
TABLES
0
TABLE
2
LTYPE
0
LTYPE
72
65
70
64
2
CONTINUOUS
3
______
73
0
40
0
0
ENDTAB
0
TABLE
2
LAYER
0
LAYER
2
DEFAULT_255_2_778
70
0
62
255
6
CONTINUOUS
0
ENDTAB
0
ENDSEC
0
SECTION
2
ENTITIES
0
ARC
8
0
10
4.9869131
20
-4.3370194
40
3.7466807
50
164.2493072
51
180.0581226
0
ARC
8
0
10
4.9467706
20
-4.3294349
40
3.7059882
50
135.9853062
51
164.1936958
0
ARC
8
0
10
4.950451
20
-4.3283441
40
3.7078788
50
106.534626
51
136.0369456
0
ARC
8
0
10
4.9564002
20
-4.3617659
40
3.7416136
50
90.4620841
51
106.4763055
0
ARC
8
0
10
4.9608964
20
-4.4485801
40
3.828463
50
89.9993871
51
90.5188931
0
ARC
8
0
10
74.4178617
20
-4.3667822
40
3.746667
50
74.2492685
51
90.0581309
0
ARC
8
0
10
74.4254443
20
-4.3266541
40
3.705989
50
45.9853038
51
74.1936884
0
ARC
8
0
10
74.4265377
20
-4.3303343
40
3.7078775
50
16.5346338
51
46.0369689
0
ARC
8
0
10
74.3931169
20
-4.336283
40
3.7416112
50
0.4620846
51
16.4763122
0
ARC
8
0
10
74.3063019
20
-4.3407792
40
3.8284616
50
359.9993871
51
0.5188931
0
ARC
8
0
10
74.3880894
20
-22.9481368
40
3.746676
50
344.2492872
51
0.058134
0
ARC
8
0
10
74.4282524
20
-22.9557324
40
3.7059608
50
316.0208232
51
344.1937539
0
ARC
8
0
10
74.4245294
20
-22.9567806
40
3.7079135
50
286.5476266
51
316.0724264
0
ARC
8
0
10
74.4186025
20
-22.9234364
40
3.7415666
50
270.462434
51
286.4892002
0
ARC
8
0
10
74.4140573
20
-22.8305181
40
3.8345203
50
270.0000467
51
270.519141
0
ARC
8
0
10
4.9571366
20
-22.9183572
40
3.746683
50
254.2493137
51
270.0581228
0
ARC
8
0
10
4.9495378
20
-22.9585291
40
3.7059585
50
226.0208515
51
254.1937904
0
ARC
8
0
10
4.9484873
20
-22.954808
40
3.7079082
50
196.5476141
51
226.0724605
0
ARC
8
0
10
4.9818441
20
-22.9488778
40
3.7415743
50
180.4624273
51
196.4891818
0
ARC
8
0
10
5.074762
20
-22.9443322
40
3.8345278
50
180.0000467
51
180.519141
0
LINE
8
DEFAULT_255_2_778
10
4.9609374
20
-0.6201172
11
74.4140604
21
-0.6201172
0
LINE
8
DEFAULT_255_2_778
10
78.1347635
20
-4.3408202
11
78.1347635
21
-22.9443353
0
LINE
8
DEFAULT_255_2_778
10
74.4140604
20
-26.6650383
11
4.9609374
21
-26.6650383
0
LINE
8
DEFAULT_255_2_778
10
1.2402343
20
-22.9443353
11
1.2402343
21
-4.3408202
0
ENDSEC
0
EOF