0
SECTION
2
HEADER
0
ENDSEC
0
SECTION
2
TABLES
0
TABLE
2
LTYPE
0
LTYPE
72
65
70
64
2
CONTINUOUS
3
______
73
0
40
0
0
ENDTAB
0
TABLE
2
LAYER
0
LAYER
2
DEFAULT_255_2_778
70
0
62
255
6
CONTINUOUS
0
ENDTAB
0
ENDSEC
0
SECTION
2
ENTITIES
0
ARC
8
0
10
5.6070303
20
-2.4766679
40
3.7466807
50
164.2493072
51
180.0581226
0
ARC
8
0
10
5.5668877
20
-2.4690834
40
3.7059882
50
135.9853062
51
164.1936958
0
ARC
8
0
10
5.5705682
20
-2.4679926
40
3.7078788
50
106.534626
51
136.0369456
0
ARC
8
0
10
5.5765174
20
-2.5014144
40
3.7416136
50
90.4620841
51
106.4763055
0
ARC
8
0
10
5.5810136
20
-2.5882286
40
3.828463
50
89.9993871
51
90.5188931
0
ARC
8
0
10
73.7977445
20
-2.5064307
40
3.746667
50
74.2492685
51
90.0581309
0
ARC
8
0
10
73.8053271
20
-2.4663026
40
3.705989
50
45.9853038
51
74.1936884
0
ARC
8
0
10
73.8064206
20
-2.4699827
40
3.7078775
50
16.5346338
51
46.0369689
0
ARC
8
0
10
73.7729998
20
-2.4759315
40
3.7416112
50
0.4620846
51
16.4763122
0
ARC
8
0
10
73.6861847
20
-2.4804277
40
3.8284616
50
359.9993871
51
0.5188931
0
ARC
8
0
10
73.7679723
20
-22.3280196
40
3.746676
50
344.2492872
51
0.058134
0
ARC
8
0
10
73.8081352
20
-22.3356152
40
3.7059608
50
316.0208232
51
344.1937539
0
ARC
8
0
10
73.8044123
20
-22.3366634
40
3.7079135
50
286.5476266
51
316.0724264
0
ARC
8
0
10
73.7984853
20
-22.3033192
40
3.7415666
50
270.462434
51
286.4892002
0
ARC
8
0
10
73.7939401
20
-22.210401
40
3.8345203
50
270.0000467
51
270.519141
0
ARC
8
0
10
5.5772538
20
-22.29824
40
3.746683
50
254.2493137
51
270.0581228
0
ARC
8
0
10
5.569655
20
-22.338412
40
3.7059585
50
226.0208515
51
254.1937904
0
ARC
8
0
10
5.5686045
20
-22.3346909
40
3.7079082
50
196.5476141
51
226.0724605
0
ARC
8
0
10
5.6019613
20
-22.3287606
40
3.7415743
50
180.4624273
51
196.4891818
0
ARC
8
0
10
5.6948791
20
-22.324215
40
3.8345278
50
180.0000467
51
180.519141
0
LINE
8
DEFAULT_255_2_778
10
5.5810545
20
1.2402343
11
73.7939433
21
1.2402343
0
LINE
8
DEFAULT_255_2_778
10
77.5146463
20
-2.4804687
11
77.5146463
21
-22.3242181
0
LINE
8
DEFAULT_255_2_778
10
73.7939433
20
-26.0449212
11
5.5810545
21
-26.0449212
0
LINE
8
DEFAULT_255_2_778
10
1.8603515
20
-22.3242181
11
1.8603515
21
-2.4804687
0
ENDSEC
0
EOF